999
dxflib 2.0.4.8
  0
SECTION
  2
HEADER
  9
$ACADVER
  1
AC1015
  9
$HANDSEED
  5
FFFF
  9
$GRIDUNIT
 10
0.0
 20
0.0
  9
$DIMASZ
 40
2.5
  9
$DIMADEC
 70
2
  9
$DIMGAP
 40
0.625
  9
$LUNITS
 70
2
  9
$AUPREC
 70
2
  9
$SPLINESEGS
 70
8
  9
$DIMEXO
 40
0.625
  9
$INSUNITS
 70
4
  9
$DIMLUNIT
 70
2
  9
$DIMTXT
 40
2.5
  9
$GRIDMODE
 70
1
  9
$LUPREC
 70
4
  9
$DIMSTYLE
  2
Standard
  9
$PLIMMAX
 10
420.0
 20
297.0
  9
$PLIMMIN
 10
0.0
 20
0.0
  9
$PINSBASE
 10
190.0
 20
163.5
 30
0.0
  9
$DIMEXE
 40
1.25
  9
$DIMAUNIT
 70
0
  9
$AUNITS
 70
0
  0
ENDSEC
  0
SECTION
  2
TABLES
  0
TABLE
  2
VPORT
  5
8
100
AcDbSymbolTable
 70
1
  0
VPORT
  5
30
100
AcDbSymbolTableRecord
100
AcDbViewportTableRecord
  2
*Active
 70
0
 10
0.0
 20
0.0
 11
1.0
 21
1.0
 12
286.3055555555554861
 22
148.5
 13
0.0
 23
0.0
 14
10.0
 24
10.0
 15
10.0
 25
10.0
 16
0.0
 26
0.0
 36
1.0
 17
0.0
 27
0.0
 37
0.0
 40
297.0
 41
1.92798353909465
 42
50.0
 43
0.0
 44
0.0
 50
0.0
 51
0.0
 71
0
 72
100
 73
1
 74
3
 75
1
 76
1
 77
0
 78
0
281
0
 65
1
110
0.0
120
0.0
130
0.0
111
1.0
121
0.0
131
0.0
112
0.0
122
1.0
132
0.0
 79
0
146
0.0
  0
ENDTAB
  0
TABLE
  2
LTYPE
  5
5
100
AcDbSymbolTable
 70
21
  0
LTYPE
  5
14
100
AcDbSymbolTableRecord
100
AcDbLinetypeTableRecord
  2
ByBlock
 70
0
  3

 72
65
 73
0
 40
0.0
  0
LTYPE
  5
15
100
AcDbSymbolTableRecord
100
AcDbLinetypeTableRecord
  2
ByLayer
 70
0
  3

 72
65
 73
0
 40
0.0
  0
LTYPE
  5
16
100
AcDbSymbolTableRecord
100
AcDbLinetypeTableRecord
  2
CONTINUOUS
 70
0
  3
Solid line
 72
65
 73
0
 40
0.0
  0
LTYPE
  5
31
100
AcDbSymbolTableRecord
100
AcDbLinetypeTableRecord
  2
DOT
 70
0
  3
Dot . . . . . . . . . . . . . . . . . . . . . .
 72
65
 73
2
 40
6.3499999999999996
 49
0.0
 74
0
 49
-6.3499999999999996
 74
0
  0
LTYPE
  5
32
100
AcDbSymbolTableRecord
100
AcDbLinetypeTableRecord
  2
DOT2
 70
0
  3
Dot (.5x) .....................................
 72
65
 73
2
 40
3.1749999999999998
 49
0.0
 74
0
 49
-3.1749999999999998
 74
0
  0
LTYPE
  5
33
100
AcDbSymbolTableRecord
100
AcDbLinetypeTableRecord
  2
DOTX2
 70
0
  3
Dot (2x) .  .  .  .  .  .  .  .  .  .  .  .  .
 72
65
 73
2
 40
12.6999999999999993
 49
0.0
 74
0
 49
-12.6999999999999993
 74
0
  0
LTYPE
  5
34
100
AcDbSymbolTableRecord
100
AcDbLinetypeTableRecord
  2
DASHED
 70
0
  3
Dashed __ __ __ __ __ __ __ __ __ __ __ __ __ _
 72
65
 73
2
 40
19.0500000000000007
 49
12.6999999999999993
 74
0
 49
-6.3499999999999996
 74
0
  0
LTYPE
  5
35
100
AcDbSymbolTableRecord
100
AcDbLinetypeTableRecord
  2
DASHED2
 70
0
  3
Dashed (.5x) _ _ _ _ _ _ _ _ _ _ _ _ _ _ _ _ _
 72
65
 73
2
 40
9.5250000000000004
 49
6.3499999999999996
 74
0
 49
-3.1749999999999998
 74
0
  0
LTYPE
  5
36
100
AcDbSymbolTableRecord
100
AcDbLinetypeTableRecord
  2
DASHEDX2
 70
0
  3
Dashed (2x) ____  ____  ____  ____  ____  ___
 72
65
 73
2
 40
38.1000000000000014
 49
25.3999999999999986
 74
0
 49
-12.6999999999999993
 74
0
  0
LTYPE
  5
37
100
AcDbSymbolTableRecord
100
AcDbLinetypeTableRecord
  2
DASHDOT
 70
0
  3
Dash dot __ . __ . __ . __ . __ . __ . __ . __
 72
65
 73
4
 40
25.3999999999999986
 49
12.6999999999999993
 74
0
 49
-6.3499999999999996
 74
0
 49
0.0
 74
0
 49
-6.3499999999999996
 74
0
  0
LTYPE
  5
38
100
AcDbSymbolTableRecord
100
AcDbLinetypeTableRecord
  2
DASHDOT2
 70
0
  3
Dash dot (.5x) _._._._._._._._._._._._._._._.
 72
65
 73
4
 40
12.6999999999999993
 49
6.3499999999999996
 74
0
 49
-3.1749999999999998
 74
0
 49
0.0
 74
0
 49
-3.1749999999999998
 74
0
  0
LTYPE
  5
39
100
AcDbSymbolTableRecord
100
AcDbLinetypeTableRecord
  2
DASHDOTX2
 70
0
  3
Dash dot (2x) ____  .  ____  .  ____  .  ___
 72
65
 73
4
 40
50.7999999999999972
 49
25.3999999999999986
 74
0
 49
-12.6999999999999993
 74
0
 49
0.0
 74
0
 49
-12.6999999999999993
 74
0
  0
LTYPE
  5
3A
100
AcDbSymbolTableRecord
100
AcDbLinetypeTableRecord
  2
DIVIDE
 70
0
  3
Divide ____ . . ____ . . ____ . . ____ . . ____
 72
65
 73
6
 40
31.75
 49
12.6999999999999993
 74
0
 49
-6.3499999999999996
 74
0
 49
0.0
 74
0
 49
-6.3499999999999996
 74
0
 49
0.0
 74
0
 49
-6.3499999999999996
 74
0
  0
LTYPE
  5
3B
100
AcDbSymbolTableRecord
100
AcDbLinetypeTableRecord
  2
DIVIDE2
 70
0
  3
Divide (.5x) __..__..__..__..__..__..__..__.._
 72
65
 73
6
 40
15.875
 49
6.3499999999999996
 74
0
 49
-3.1749999999999998
 74
0
 49
0.0
 74
0
 49
-3.1749999999999998
 74
0
 49
0.0
 74
0
 49
-3.1749999999999998
 74
0
  0
LTYPE
  5
3C
100
AcDbSymbolTableRecord
100
AcDbLinetypeTableRecord
  2
DIVIDEX2
 70
0
  3
Divide (2x) ________  .  .  ________  .  .  _
 72
65
 73
6
 40
63.5
 49
25.3999999999999986
 74
0
 49
-12.6999999999999993
 74
0
 49
0.0
 74
0
 49
-12.6999999999999993
 74
0
 49
0.0
 74
0
 49
-12.6999999999999993
 74
0
  0
LTYPE
  5
3D
100
AcDbSymbolTableRecord
100
AcDbLinetypeTableRecord
  2
CENTER
 70
0
  3
Center ____ _ ____ _ ____ _ ____ _ ____ _ ____
 72
65
 73
4
 40
50.7999999999999972
 49
31.75
 74
0
 49
-6.3499999999999996
 74
0
 49
6.3499999999999996
 74
0
 49
-6.3499999999999996
 74
0
  0
LTYPE
  5
3E
100
AcDbSymbolTableRecord
100
AcDbLinetypeTableRecord
  2
CENTER2
 70
0
  3
Center (.5x) ___ _ ___ _ ___ _ ___ _ ___ _ ___
 72
65
 73
4
 40
28.5749999999999993
 49
19.0500000000000007
 74
0
 49
-3.1749999999999998
 74
0
 49
3.1749999999999998
 74
0
 49
-3.1749999999999998
 74
0
  0
LTYPE
  5
3F
100
AcDbSymbolTableRecord
100
AcDbLinetypeTableRecord
  2
CENTERX2
 70
0
  3
Center (2x) ________  __  ________  __  _____
 72
65
 73
4
 40
101.5999999999999943
 49
63.5
 74
0
 49
-12.6999999999999993
 74
0
 49
12.6999999999999993
 74
0
 49
-12.6999999999999993
 74
0
  0
LTYPE
  5
40
100
AcDbSymbolTableRecord
100
AcDbLinetypeTableRecord
  2
BORDER
 70
0
  3
Border __ __ . __ __ . __ __ . __ __ . __ __ .
 72
65
 73
6
 40
44.4500000000000028
 49
12.6999999999999993
 74
0
 49
-6.3499999999999996
 74
0
 49
12.6999999999999993
 74
0
 49
-6.3499999999999996
 74
0
 49
0.0
 74
0
 49
-6.3499999999999996
 74
0
  0
LTYPE
  5
41
100
AcDbSymbolTableRecord
100
AcDbLinetypeTableRecord
  2
BORDER2
 70
0
  3
Border (.5x) __.__.__.__.__.__.__.__.__.__.__.
 72
65
 73
6
 40
22.2250000000000014
 49
6.3499999999999996
 74
0
 49
-3.1749999999999998
 74
0
 49
6.3499999999999996
 74
0
 49
-3.1749999999999998
 74
0
 49
0.0
 74
0
 49
-3.1749999999999998
 74
0
  0
LTYPE
  5
42
100
AcDbSymbolTableRecord
100
AcDbLinetypeTableRecord
  2
BORDERX2
 70
0
  3
Border (2x) ____  ____  .  ____  ____  .  ___
 72
65
 73
6
 40
88.9000000000000057
 49
25.3999999999999986
 74
0
 49
-12.6999999999999993
 74
0
 49
25.3999999999999986
 74
0
 49
-12.6999999999999993
 74
0
 49
0.0
 74
0
 49
-12.6999999999999993
 74
0
  0
ENDTAB
  0
TABLE
  2
LAYER
  5
2
100
AcDbSymbolTable
 70
25
  0
LAYER
  5
10
100
AcDbSymbolTableRecord
100
AcDbLayerTableRecord
  2
0
 70
0
 62
1
  6
CONTINUOUS
370
100
390
F
  0
LAYER
  5
43
100
AcDbSymbolTableRecord
100
AcDbLayerTableRecord
  2
energy
 70
0
 62
5
  6
CONTINUOUS
370
0
390
F
  0
LAYER
  5
44
100
AcDbSymbolTableRecord
100
AcDbLayerTableRecord
  2
PWM
 70
0
 62
5
  6
CONTINUOUS
370
50
390
F
  0
LAYER
  5
45
100
AcDbSymbolTableRecord
100
AcDbLayerTableRecord
  2
phase
 70
0
 62
8
  6
CONTINUOUS
370
0
390
F
  0
LAYER
  5
46
100
AcDbSymbolTableRecord
100
AcDbLayerTableRecord
  2
stepping
 70
0
 62
14
  6
CONTINUOUS
370
50
390
F
  0
LAYER
  5
47
100
AcDbSymbolTableRecord
100
AcDbLayerTableRecord
  2
field W -
 70
0
 62
14
  6
CONTINUOUS
370
100
390
F
  0
LAYER
  5
48
100
AcDbSymbolTableRecord
100
AcDbLayerTableRecord
  2
field W+
 70
0
 62
14
  6
CONTINUOUS
370
100
390
F
  0
LAYER
  5
49
100
AcDbSymbolTableRecord
100
AcDbLayerTableRecord
  2
field U -
 70
0
 62
14
  6
CONTINUOUS
370
100
390
F
  0
LAYER
  5
4A
100
AcDbSymbolTableRecord
100
AcDbLayerTableRecord
  2
field U+
 70
0
 62
14
  6
CONTINUOUS
370
100
390
F
  0
LAYER
  5
4B
100
AcDbSymbolTableRecord
100
AcDbLayerTableRecord
  2
field V+
 70
0
 62
14
  6
CONTINUOUS
370
100
390
F
  0
LAYER
  5
4C
100
AcDbSymbolTableRecord
100
AcDbLayerTableRecord
  2
field V -
 70
0
 62
14
  6
CONTINUOUS
370
100
390
F
  0
LAYER
  5
4D
100
AcDbSymbolTableRecord
100
AcDbLayerTableRecord
  2
border
 70
0
 62
5
  6
CONTINUOUS
370
0
390
F
  0
LAYER
  5
4E
100
AcDbSymbolTableRecord
100
AcDbLayerTableRecord
  2
truthtable
 70
0
 62
7
  6
CONTINUOUS
370
0
390
F
  0
LAYER
  5
4F
100
AcDbSymbolTableRecord
100
AcDbLayerTableRecord
  2
030 degrees
 70
0
 62
1
  6
CONTINUOUS
370
100
390
F
  0
LAYER
  5
50
100
AcDbSymbolTableRecord
100
AcDbLayerTableRecord
  2
090 degrees
 70
0
 62
1
  6
CONTINUOUS
370
100
390
F
  0
LAYER
  5
51
100
AcDbSymbolTableRecord
100
AcDbLayerTableRecord
  2
150 degrees
 70
0
 62
1
  6
CONTINUOUS
370
100
390
F
  0
LAYER
  5
52
100
AcDbSymbolTableRecord
100
AcDbLayerTableRecord
  2
210 degrees
 70
0
 62
1
  6
CONTINUOUS
370
100
390
F
  0
LAYER
  5
53
100
AcDbSymbolTableRecord
100
AcDbLayerTableRecord
  2
270 degrees
 70
0
 62
1
  6
CONTINUOUS
370
100
390
F
  0
LAYER
  5
54
100
AcDbSymbolTableRecord
100
AcDbLayerTableRecord
  2
330 degrees
 70
0
 62
1
  6
CONTINUOUS
370
100
390
F
  0
LAYER
  5
55
100
AcDbSymbolTableRecord
100
AcDbLayerTableRecord
  2
060 degrees
 70
0
 62
1
  6
DOT2
370
100
390
F
  0
LAYER
  5
56
100
AcDbSymbolTableRecord
100
AcDbLayerTableRecord
  2
120 degrees
 70
0
 62
1
  6
DOT2
370
100
390
F
  0
LAYER
  5
57
100
AcDbSymbolTableRecord
100
AcDbLayerTableRecord
  2
180 degrees
 70
0
 62
1
  6
DOT2
370
100
390
F
  0
LAYER
  5
58
100
AcDbSymbolTableRecord
100
AcDbLayerTableRecord
  2
240 degrees
 70
0
 62
1
  6
DOT2
370
100
390
F
  0
LAYER
  5
59
100
AcDbSymbolTableRecord
100
AcDbLayerTableRecord
  2
300 degrees
 70
0
 62
1
  6
DOT2
370
100
390
F
  0
LAYER
  5
5A
100
AcDbSymbolTableRecord
100
AcDbLayerTableRecord
  2
360 degrees
 70
0
 62
1
  6
DOT2
370
100
390
F
  0
ENDTAB
  0
TABLE
  2
STYLE
  5
3
100
AcDbSymbolTable
 70
1
  0
STYLE
  5
11
100
AcDbSymbolTableRecord
100
AcDbTextStyleTableRecord
  2
Standard
 70
0
 40
0.0
 41
0.75
 50
0.0
 71
0
 42
2.5
  3
txt
  4

  0
ENDTAB
  0
TABLE
  2
VIEW
  5
6
100
AcDbSymbolTable
 70
0
  0
ENDTAB
  0
TABLE
  2
UCS
  5
7
100
AcDbSymbolTable
 70
0
  0
ENDTAB
  0
TABLE
  2
APPID
  5
9
100
AcDbSymbolTable
 70
1
  0
APPID
  5
12
100
AcDbSymbolTableRecord
100
AcDbRegAppTableRecord
  2
ACAD
 70
0
  0
ENDTAB
  0
TABLE
  2
DIMSTYLE
  5
A
100
AcDbSymbolTable
 70
1
100
AcDbDimStyleTable
 71
0
  0
DIMSTYLE
105
27
100
AcDbSymbolTableRecord
100
AcDbDimStyleTableRecord
  2
Standard
 41
2.5
 42
0.625
 43
3.75
 44
1.25
 70
0
 73
0
 74
0
 77
1
 78
8
140
2.5
141
2.5
143
0.03937007874016
147
0.625
171
3
172
1
271
2
272
2
274
3
278
44
283
0
284
8
340
11
  0
ENDTAB
  0
TABLE
  2
BLOCK_RECORD
  5
1
100
AcDbSymbolTable
 70
1
  0
BLOCK_RECORD
  5
1F
100
AcDbSymbolTableRecord
100
AcDbBlockTableRecord
  2
*Model_Space
340
22
  0
BLOCK_RECORD
  5
1B
100
AcDbSymbolTableRecord
100
AcDbBlockTableRecord
  2
*Paper_Space
340
1E
  0
BLOCK_RECORD
  5
23
100
AcDbSymbolTableRecord
100
AcDbBlockTableRecord
  2
*Paper_Space0
340
26
  0
ENDTAB
  0
ENDSEC
  0
SECTION
  2
BLOCKS
  0
BLOCK
  5
20
100
AcDbEntity
  8
0
100
AcDbBlockBegin
  2
*Model_Space
 70
0
 10
0.0
 20
0.0
 30
0.0
  3
*Model_Space
  1

  0
ENDBLK
  5
21
100
AcDbEntity
  8
0
100
AcDbBlockEnd
  0
BLOCK
  5
1C
100
AcDbEntity
 67
1
  8
0
100
AcDbBlockBegin
  2
*Paper_Space
 70
0
 10
0.0
 20
0.0
 30
0.0
  3
*Paper_Space
  1

  0
ENDBLK
  5
1D
100
AcDbEntity
 67
1
  8
0
100
AcDbBlockEnd
  0
BLOCK
  5
24
100
AcDbEntity
  8
0
100
AcDbBlockBegin
  2
*Paper_Space0
 70
0
 10
0.0
 20
0.0
 30
0.0
  3
*Paper_Space0
  1

  0
ENDBLK
  5
25
100
AcDbEntity
  8
0
100
AcDbBlockEnd
  0
ENDSEC
  0
SECTION
  2
ENTITIES
  0
HATCH
  5
5B
  8
360 degrees
 62
256
370
-1
  6
CONTINUOUS
100
AcDbEntity
100
AcDbHatch
 10
0.0
 20
0.0
 30
0.0
210
0.0
220
0.0
230
1.0
  2
SOLID
 70
1
 71
0
 91
1
 92
1
 93
3
 72
1
 10
0.000000000000057
 20
60.0000000000000284
 11
-1.99999999999994
 21
52.0000000000000071
 72
1
 10
-1.99999999999994
 20
52.0000000000000071
 11
2.0000000000000382
 21
51.9999999999999858
 72
1
 10
2.0000000000000382
 20
51.9999999999999858
 11
0.000000000000057
 21
60.0000000000000284
 97
0
 75
0
 76
1
 98
0
  0
HATCH
  5
5C
  8
300 degrees
 62
256
370
-1
  6
CONTINUOUS
100
AcDbEntity
100
AcDbHatch
 10
0.0
 20
0.0
 30
0.0
210
0.0
220
0.0
230
1.0
  2
SOLID
 70
1
 71
0
 91
1
 92
1
 93
3
 72
1
 10
-51.961524227066306
 20
30.0000000000000817
 11
-46.0333209967907706
 21
24.2679491924312174
 72
1
 10
-46.0333209967907706
 20
24.2679491924312174
 11
-44.0333209967907848
 21
27.7320508075689034
 72
1
 10
-44.0333209967907848
 20
27.7320508075689034
 11
-51.961524227066306
 21
30.0000000000000817
 97
0
 75
0
 76
1
 98
0
  0
HATCH
  5
5D
  8
240 degrees
 62
256
370
-1
  6
CONTINUOUS
100
AcDbEntity
100
AcDbHatch
 10
0.0
 20
0.0
 30
0.0
210
0.0
220
0.0
230
1.0
  2
SOLID
 70
1
 71
0
 91
1
 92
1
 93
3
 72
1
 10
-51.9615242270663842
 20
-29.9999999999999574
 11
-44.0333209967908701
 21
-27.732050807568779
 72
1
 10
-44.0333209967908701
 20
-27.732050807568779
 11
-46.0333209967908346
 21
-24.2679491924310788
 72
1
 10
-46.0333209967908346
 20
-24.2679491924310788
 11
-51.9615242270663842
 21
-29.9999999999999574
 97
0
 75
0
 76
1
 98
0
  0
HATCH
  5
5E
  8
180 degrees
 62
256
370
-1
  6
CONTINUOUS
100
AcDbEntity
100
AcDbHatch
 10
0.0
 20
0.0
 30
0.0
210
0.0
220
0.0
230
1.0
  2
SOLID
 70
1
 71
0
 91
1
 92
1
 93
3
 72
1
 10
-0.0000000000000643
 20
-60.0000000000000142
 11
1.9999999999999107
 21
-52.0000000000000142
 72
1
 10
1.9999999999999107
 20
-52.0000000000000142
 11
-2.0000000000000222
 21
-52.0000000000000071
 72
1
 10
-2.0000000000000222
 20
-52.0000000000000071
 11
-0.0000000000000643
 21
-60.0000000000000142
 97
0
 75
0
 76
1
 98
0
  0
HATCH
  5
5F
  8
120 degrees
 62
256
370
-1
  6
CONTINUOUS
100
AcDbEntity
100
AcDbHatch
 10
0.0
 20
0.0
 30
0.0
210
0.0
220
0.0
230
1.0
  2
SOLID
 70
1
 71
0
 91
1
 92
1
 93
3
 72
1
 10
51.9615242270663131
 20
-30.0000000000000355
 11
46.0333209967908061
 21
-24.2679491924311392
 72
1
 10
46.0333209967908061
 20
-24.2679491924311392
 11
44.0333209967908061
 21
-27.7320508075688679
 72
1
 10
44.0333209967908061
 20
-27.7320508075688679
 11
51.9615242270663131
 21
-30.0000000000000355
 97
0
 75
0
 76
1
 98
0
  0
HATCH
  5
60
  8
060 degrees
 62
256
370
-1
  6
CONTINUOUS
100
AcDbEntity
100
AcDbHatch
 10
0.0
 20
0.0
 30
0.0
210
0.0
220
0.0
230
1.0
  2
SOLID
 70
1
 71
0
 91
1
 92
1
 93
3
 72
1
 10
51.9615242270663202
 20
30.0000000000000107
 11
44.0333209967908132
 21
27.7320508075688785
 72
1
 10
44.0333209967908132
 20
27.7320508075688785
 11
46.0333209967908061
 21
24.2679491924311144
 72
1
 10
46.0333209967908061
 20
24.2679491924311144
 11
51.9615242270663202
 21
30.0000000000000107
 97
0
 75
0
 76
1
 98
0
  0
HATCH
  5
61
  8
field U -
 62
256
370
-1
  6
ByLayer
100
AcDbEntity
100
AcDbHatch
 10
0.0
 20
0.0
 30
0.0
210
0.0
220
0.0
230
1.0
  2
SOLID
 70
1
 71
0
 91
1
 92
1
 93
3
 72
1
 10
-0.0031759539556049
 20
0.0011133168851995
 11
1.9968240460444378
 21
10.001113316885192
 72
1
 10
1.9968240460444378
 20
10.001113316885192
 11
-2.0031759539555907
 21
10.0011133168852009
 72
1
 10
-2.0031759539555907
 20
10.0011133168852009
 11
-0.0031759539556049
 21
0.0011133168851995
 97
0
 75
0
 76
1
 98
0
  0
HATCH
  5
62
  8
0
 62
256
370
-1
  6
ByLayer
100
AcDbEntity
100
AcDbHatch
 10
0.0
 20
0.0
 30
0.0
210
0.0
220
0.0
230
1.0
  2
SOLID
 70
1
 71
0
 91
1
 92
1
 93
1
 72
2
 10
0.0
 20
0.0
 40
2.2360679774997898
 50
0.0
 51
360.0
 73
1
 97
0
 75
0
 76
1
 98
0
  0
HATCH
  5
63
  8
field U+
 62
256
370
-1
  6
ByLayer
100
AcDbEntity
100
AcDbHatch
 10
0.0
 20
0.0
 30
0.0
210
0.0
220
0.0
230
1.0
  2
SOLID
 70
1
 71
0
 91
1
 92
1
 93
3
 72
1
 10
-0.0031759539554912
 20
50.0011133168851956
 11
-2.003175953955548
 21
40.0011133168852098
 72
1
 10
-2.003175953955548
 20
40.0011133168852098
 11
1.9968240460444804
 21
40.0011133168851956
 72
1
 10
1.9968240460444804
 20
40.0011133168851956
 11
-0.0031759539554912
 21
50.0011133168851956
 97
0
 75
0
 76
1
 98
0
  0
HATCH
  5
64
  8
field V+
 62
256
370
-1
  6
ByLayer
100
AcDbEntity
100
AcDbHatch
 10
0.0
 20
0.0
 30
0.0
210
0.0
220
0.0
230
1.0
  2
SOLID
 70
1
 71
0
 91
1
 92
1
 93
3
 72
1
 10
43.3038223269047364
 20
-24.9978062016358606
 11
35.6435682890603829
 21
-18.265755394066943
 72
1
 10
35.6435682890603829
 20
-18.265755394066943
 11
33.6435682890603687
 21
-21.7298570092047214
 72
1
 10
33.6435682890603687
 20
-21.7298570092047214
 11
43.3038223269047364
 21
-24.9978062016358606
 97
0
 75
0
 76
1
 98
0
  0
HATCH
  5
65
  8
field V -
 62
256
370
-1
  6
ByLayer
100
AcDbEntity
100
AcDbHatch
 10
0.0
 20
0.0
 30
0.0
210
0.0
220
0.0
230
1.0
  2
SOLID
 70
1
 71
0
 91
1
 92
1
 93
3
 72
1
 10
0.0025521376828408
 20
0.0021937983642029
 11
7.6628061755272086
 21
-6.7298570092046965
 72
1
 10
7.6628061755272086
 20
-6.7298570092046965
 11
9.662806175527237
 21
-3.2657553940669244
 72
1
 10
9.662806175527237
 20
-3.2657553940669244
 11
0.0025521376828408
 21
0.0021937983642029
 97
0
 75
0
 76
1
 98
0
  0
HATCH
  5
66
  8
field W+
 62
256
370
-1
  6
ByLayer
100
AcDbEntity
100
AcDbHatch
 10
0.0
 20
0.0
 30
0.0
210
0.0
220
0.0
230
1.0
  2
SOLID
 70
1
 71
0
 91
1
 92
1
 93
3
 72
1
 10
-43.3006463729491884
 20
-25.0033071152493775
 11
-33.6403923351047993
 21
-21.7353579228182738
 72
1
 10
-33.6403923351047993
 20
-21.7353579228182738
 11
-35.6403923351048064
 21
-18.2712563076804955
 72
1
 10
-35.6403923351048064
 20
-18.2712563076804955
 11
-43.3006463729491884
 21
-25.0033071152493775
 97
0
 75
0
 76
1
 98
0
  0
HATCH
  5
67
  8
field W -
 62
256
370
-1
  6
ByLayer
100
AcDbEntity
100
AcDbHatch
 10
0.0
 20
0.0
 30
0.0
210
0.0
220
0.0
230
1.0
  2
SOLID
 70
1
 71
0
 91
1
 92
1
 93
3
 72
1
 10
0.0006238162727641
 20
-0.0033071152494024
 11
-9.6596302215716392
 21
-3.2712563076804955
 72
1
 10
-9.6596302215716392
 20
-3.2712563076804955
 11
-7.6596302215716321
 21
-6.7353579228182809
 72
1
 10
-7.6596302215716321
 20
-6.7353579228182809
 11
0.0006238162727641
 21
-0.0033071152494024
 97
0
 75
0
 76
1
 98
0
  0
HATCH
  5
68
  8
030 degrees
 62
256
370
-1
  6
ByLayer
100
AcDbEntity
100
AcDbHatch
 10
0.0
 20
0.0
 30
0.0
210
0.0
220
0.0
230
1.0
  2
SOLID
 70
1
 71
0
 91
1
 92
1
 93
3
 72
1
 10
30.0
 20
51.9615242270663202
 11
24.2679491924311321
 21
46.0333209967908132
 72
1
 10
24.2679491924311321
 20
46.0333209967908132
 11
27.7320508075688821
 21
44.0333209967908061
 72
1
 10
27.7320508075688821
 20
44.0333209967908061
 11
30.0
 21
51.9615242270663202
 97
0
 75
0
 76
1
 98
0
  0
HATCH
  5
69
  8
090 degrees
 62
256
370
-1
  6
ByLayer
100
AcDbEntity
100
AcDbHatch
 10
0.0
 20
0.0
 30
0.0
210
0.0
220
0.0
230
1.0
  2
SOLID
 70
1
 71
0
 91
1
 92
1
 93
3
 72
1
 10
60.0
 20
-0.0000000000000067
 11
52.0
 21
2.0000000000000004
 72
1
 10
52.0
 20
2.0000000000000004
 11
52.0
 21
-2.0000000000000067
 72
1
 10
52.0
 20
-2.0000000000000067
 11
60.0
 21
-0.0000000000000067
 97
0
 75
0
 76
1
 98
0
  0
HATCH
  5
6A
  8
150 degrees
 62
256
370
-1
  6
ByLayer
100
AcDbEntity
100
AcDbHatch
 10
0.0
 20
0.0
 30
0.0
210
0.0
220
0.0
230
1.0
  2
SOLID
 70
1
 71
0
 91
1
 92
1
 93
3
 72
1
 10
30.0
 20
-51.9615242270663131
 11
27.7320508075688537
 21
-44.0333209967908203
 72
1
 10
27.7320508075688537
 20
-44.0333209967908203
 11
24.2679491924311179
 21
-46.0333209967908061
 72
1
 10
24.2679491924311179
 20
-46.0333209967908061
 11
30.0
 21
-51.9615242270663131
 97
0
 75
0
 76
1
 98
0
  0
HATCH
  5
6B
  8
210 degrees
 62
256
370
-1
  6
ByLayer
100
AcDbEntity
100
AcDbHatch
 10
0.0
 20
0.0
 30
0.0
210
0.0
220
0.0
230
1.0
  2
SOLID
 70
1
 71
0
 91
1
 92
1
 93
3
 72
1
 10
-30.0000000000000213
 20
-51.9615242270662989
 11
-24.2679491924311321
 21
-46.0333209967907919
 72
1
 10
-24.2679491924311321
 20
-46.0333209967907919
 11
-27.7320508075689034
 21
-44.0333209967907848
 72
1
 10
-27.7320508075689034
 20
-44.0333209967907848
 11
-30.0000000000000213
 21
-51.9615242270662989
 97
0
 75
0
 76
1
 98
0
  0
HATCH
  5
6C
  8
270 degrees
 62
256
370
-1
  6
ByLayer
100
AcDbEntity
100
AcDbHatch
 10
0.0
 20
0.0
 30
0.0
210
0.0
220
0.0
230
1.0
  2
SOLID
 70
1
 71
0
 91
1
 92
1
 93
3
 72
1
 10
-59.9999999999999929
 20
0.000000000000034
 11
-51.9999999999999787
 21
-1.9999999999999818
 72
1
 10
-51.9999999999999787
 20
-1.9999999999999818
 11
-51.9999999999999929
 21
2.0000000000000417
 72
1
 10
-51.9999999999999929
 20
2.0000000000000417
 11
-59.9999999999999929
 21
0.000000000000034
 97
0
 75
0
 76
1
 98
0
  0
HATCH
  5
6D
  8
330 degrees
 62
256
370
-1
  6
ByLayer
100
AcDbEntity
100
AcDbHatch
 10
0.0
 20
0.0
 30
0.0
210
0.0
220
0.0
230
1.0
  2
SOLID
 70
1
 71
0
 91
1
 92
1
 93
3
 72
1
 10
-29.9999999999999858
 20
51.9615242270663202
 11
-27.7320508075688679
 21
44.033320996790799
 72
1
 10
-27.7320508075688679
 20
44.033320996790799
 11
-24.2679491924311037
 21
46.0333209967908132
 72
1
 10
-24.2679491924311037
 20
46.0333209967908132
 11
-29.9999999999999858
 21
51.9615242270663202
 97
0
 75
0
 76
1
 98
0
  0
LINE
  5
6E
100
AcDbEntity
100
AcDbLine
  8
border
 62
5
370
-1
  6
CONTINUOUS
 10
20.0
 20
-120.0
 30
0.0
 11
100.0
 21
-120.0
 31
0.0
  0
LINE
  5
6F
100
AcDbEntity
100
AcDbLine
  8
border
 62
5
370
-1
  6
CONTINUOUS
 10
100.0
 20
-120.0
 30
0.0
 11
100.0
 21
-150.0
 31
0.0
  0
LINE
  5
70
100
AcDbEntity
100
AcDbLine
  8
border
 62
5
370
-1
  6
CONTINUOUS
 10
100.0
 20
-150.0
 30
0.0
 11
20.0
 21
-150.0
 31
0.0
  0
LINE
  5
71
100
AcDbEntity
100
AcDbLine
  8
border
 62
5
370
-1
  6
CONTINUOUS
 10
20.0
 20
-150.0
 30
0.0
 11
20.0
 21
-120.0
 31
0.0
  0
LINE
  5
72
100
AcDbEntity
100
AcDbLine
  8
border
 62
5
370
-1
  6
CONTINUOUS
 10
20.0
 20
-130.0
 30
0.0
 11
100.0
 21
-130.0
 31
0.0
  0
LINE
  5
73
100
AcDbEntity
100
AcDbLine
  8
border
 62
5
370
-1
  6
CONTINUOUS
 10
100.0
 20
-140.0
 30
0.0
 11
20.0
 21
-140.0
 31
0.0
  0
LINE
  5
74
100
AcDbEntity
100
AcDbLine
  8
border
 62
5
370
-1
  6
CONTINUOUS
 10
20.0
 20
-140.0
 30
0.0
 11
20.0
 21
-130.0
 31
0.0
  0
LINE
  5
75
100
AcDbEntity
100
AcDbLine
  8
border
 62
5
370
-1
  6
CONTINUOUS
 10
100.0
 20
140.0
 30
0.0
 11
100.0
 21
-150.0
 31
0.0
  0
MTEXT
  5
76
100
AcDbEntity
100
AcDbMText
  8
border
 62
5
370
-1
  6
CONTINUOUS
 10
22.8027118644069517
 20
-134.9884894514844405
 30
0.0
 40
5.0
 41
100.0
 71
4
 72
2
  1
Graham\~North
  7
iso
 50
0.0
 73
0
 44
1.0
  0
LINE
  5
77
100
AcDbEntity
100
AcDbLine
  8
phase
 62
256
370
-1
  6
ByLayer
 10
0.0
 20
0.0
 30
0.0
 11
86.6025403784438481
 21
49.9999999999999929
 31
0.0
  0
LINE
  5
78
100
AcDbEntity
100
AcDbLine
  8
phase
 62
256
370
-1
  6
ByLayer
 10
0.0
 20
0.0
 30
0.0
 11
-86.6025403784438765
 21
-49.9999999999999716
 31
0.0
  0
LINE
  5
79
100
AcDbEntity
100
AcDbLine
  8
phase
 62
256
370
-1
  6
ByLayer
 10
0.0
 20
0.0
 30
0.0
 11
-86.6025403784438623
 21
49.9999999999999929
 31
0.0
  0
LINE
  5
7A
100
AcDbEntity
100
AcDbLine
  8
phase
 62
256
370
-1
  6
ByLayer
 10
0.0
 20
0.0
 30
0.0
 11
86.6025403784438481
 21
-50.0000000000000426
 31
0.0
  0
LINE
  5
7B
100
AcDbEntity
100
AcDbLine
  8
phase
 62
256
370
-1
  6
ByLayer
 10
0.0
 20
0.0
 30
0.0
 11
-0.0000000000000142
 21
-100.0
 31
0.0
  0
LINE
  5
7C
100
AcDbEntity
100
AcDbLine
  8
energy
 62
5
370
-1
  6
ByLayer
 10
0.0
 20
50.0
 30
0.0
 11
43.3012701892219241
 21
24.9999999999999964
 31
0.0
  0
LINE
  5
7D
100
AcDbEntity
100
AcDbLine
  8
energy
 62
5
370
-1
  6
ByLayer
 10
43.3012701892219241
 20
24.9999999999999964
 30
0.0
 11
43.3012701892219241
 21
-25.0000000000000213
 31
0.0
  0
LINE
  5
7E
100
AcDbEntity
100
AcDbLine
  8
energy
 62
5
370
-1
  6
ByLayer
 10
43.3012701892219241
 20
-25.0000000000000213
 30
0.0
 11
-0.0000000000000142
 21
-50.0
 31
0.0
  0
LINE
  5
7F
100
AcDbEntity
100
AcDbLine
  8
energy
 62
5
370
-1
  6
ByLayer
 10
-0.0000000000000142
 20
-50.0
 30
0.0
 11
-43.3012701892219383
 21
-24.9999999999999858
 31
0.0
  0
LINE
  5
80
100
AcDbEntity
100
AcDbLine
  8
energy
 62
5
370
-1
  6
ByLayer
 10
-43.3012701892219383
 20
-24.9999999999999858
 30
0.0
 11
-43.3012701892219312
 21
24.9999999999999964
 31
0.0
  0
LINE
  5
81
100
AcDbEntity
100
AcDbLine
  8
energy
 62
5
370
-1
  6
ByLayer
 10
-43.3012701892219312
 20
24.9999999999999964
 30
0.0
 11
0.0
 21
50.0
 31
0.0
  0
LINE
  5
82
100
AcDbEntity
100
AcDbLine
  8
phase
 62
256
370
-1
  6
ByLayer
 10
0.0006238162727499
 20
-0.0033071152493909
 30
0.0
 11
0.0006238162727499
 21
99.9966928847506153
 31
0.0
  0
CIRCLE
  5
83
100
AcDbEntity
100
AcDbCircle
  8
phase
 62
8
370
-1
  6
CONTINUOUS
 10
0.0
 20
0.0
 30
0.0
 40
50.0
  0
LINE
  5
84
100
AcDbEntity
100
AcDbLine
  8
stepping
 62
14
370
50
  6
ByLayer
 10
0.0
 20
0.0
 30
0.0
 11
0.0
 21
50.0
 31
0.0
  0
LINE
  5
85
100
AcDbEntity
100
AcDbLine
  8
stepping
 62
14
370
50
  6
ByLayer
 10
0.0006238162727499
 20
-0.0033071152493918
 30
0.0
 11
-43.3006463729491884
 21
-25.0033071152493775
 31
0.0
  0
LINE
  5
86
100
AcDbEntity
100
AcDbLine
  8
stepping
 62
14
370
50
  6
ByLayer
 10
-0.0006238162727499
 20
-0.0033071152493918
 30
0.0
 11
43.3006463729491884
 21
-25.0033071152493811
 31
0.0
  0
LINE
  5
87
100
AcDbEntity
100
AcDbLine
  8
field W -
 62
256
370
-1
  6
ByLayer
 10
0.0006238162727641
 20
-0.0033071152494024
 30
0.0
 11
-9.6596302215716392
 21
-3.2712563076804955
 31
0.0
  0
LINE
  5
88
100
AcDbEntity
100
AcDbLine
  8
field W -
 62
256
370
-1
  6
ByLayer
 10
-9.6596302215716392
 20
-3.2712563076804955
 30
0.0
 11
-7.6596302215716321
 21
-6.7353579228182809
 31
0.0
  0
LINE
  5
89
100
AcDbEntity
100
AcDbLine
  8
field W -
 62
256
370
-1
  6
ByLayer
 10
-7.6596302215716321
 20
-6.7353579228182809
 30
0.0
 11
0.0006238162727641
 21
-0.0033071152494024
 31
0.0
  0
LINE
  5
8A
100
AcDbEntity
100
AcDbLine
  8
field W+
 62
256
370
-1
  6
ByLayer
 10
-43.3006463729491884
 20
-25.0033071152493775
 30
0.0
 11
-33.6403923351047993
 21
-21.7353579228182738
 31
0.0
  0
LINE
  5
8B
100
AcDbEntity
100
AcDbLine
  8
field W+
 62
256
370
-1
  6
ByLayer
 10
-33.6403923351047993
 20
-21.7353579228182738
 30
0.0
 11
-35.6403923351048064
 21
-18.2712563076804955
 31
0.0
  0
LINE
  5
8C
100
AcDbEntity
100
AcDbLine
  8
field W+
 62
256
370
-1
  6
ByLayer
 10
-35.6403923351048064
 20
-18.2712563076804955
 30
0.0
 11
-43.3006463729491884
 21
-25.0033071152493775
 31
0.0
  0
LINE
  5
8D
100
AcDbEntity
100
AcDbLine
  8
field V -
 62
256
370
-1
  6
ByLayer
 10
0.0025521376828408
 20
0.0021937983642029
 30
0.0
 11
7.6628061755272086
 21
-6.7298570092046965
 31
0.0
  0
LINE
  5
8E
100
AcDbEntity
100
AcDbLine
  8
field V -
 62
256
370
-1
  6
ByLayer
 10
7.6628061755272086
 20
-6.7298570092046965
 30
0.0
 11
9.662806175527237
 21
-3.2657553940669244
 31
0.0
  0
LINE
  5
8F
100
AcDbEntity
100
AcDbLine
  8
field V -
 62
256
370
-1
  6
ByLayer
 10
9.662806175527237
 20
-3.2657553940669244
 30
0.0
 11
0.0025521376828408
 21
0.0021937983642029
 31
0.0
  0
LINE
  5
90
100
AcDbEntity
100
AcDbLine
  8
field V+
 62
256
370
-1
  6
ByLayer
 10
43.3038223269047364
 20
-24.9978062016358606
 30
0.0
 11
35.6435682890603829
 21
-18.265755394066943
 31
0.0
  0
LINE
  5
91
100
AcDbEntity
100
AcDbLine
  8
field V+
 62
256
370
-1
  6
ByLayer
 10
35.6435682890603829
 20
-18.265755394066943
 30
0.0
 11
33.6435682890603687
 21
-21.7298570092047214
 31
0.0
  0
LINE
  5
92
100
AcDbEntity
100
AcDbLine
  8
field V+
 62
256
370
-1
  6
ByLayer
 10
33.6435682890603687
 20
-21.7298570092047214
 30
0.0
 11
43.3038223269047364
 21
-24.9978062016358606
 31
0.0
  0
LINE
  5
93
100
AcDbEntity
100
AcDbLine
  8
field U+
 62
256
370
-1
  6
ByLayer
 10
-0.0031759539554912
 20
50.0011133168851956
 30
0.0
 11
-2.003175953955548
 21
40.0011133168852098
 31
0.0
  0
LINE
  5
94
100
AcDbEntity
100
AcDbLine
  8
field U+
 62
256
370
-1
  6
ByLayer
 10
-2.003175953955548
 20
40.0011133168852098
 30
0.0
 11
1.9968240460444804
 21
40.0011133168851956
 31
0.0
  0
LINE
  5
95
100
AcDbEntity
100
AcDbLine
  8
field U+
 62
256
370
-1
  6
ByLayer
 10
1.9968240460444804
 20
40.0011133168851956
 30
0.0
 11
-0.0031759539554912
 21
50.0011133168851956
 31
0.0
  0
LINE
  5
96
100
AcDbEntity
100
AcDbLine
  8
030 degrees
 62
256
370
-1
  6
ByLayer
 10
-30.0000000000000284
 20
-51.961524227066306
 30
0.0
 11
30.0
 21
51.9615242270663202
 31
0.0
  0
LINE
  5
97
100
AcDbEntity
100
AcDbLine
  8
030 degrees
 62
256
370
-1
  6
ByLayer
 10
30.0
 20
51.9615242270663202
 30
0.0
 11
24.2679491924311321
 21
46.0333209967908132
 31
0.0
  0
LINE
  5
98
100
AcDbEntity
100
AcDbLine
  8
030 degrees
 62
256
370
-1
  6
ByLayer
 10
24.2679491924311321
 20
46.0333209967908132
 30
0.0
 11
27.7320508075688821
 21
44.0333209967908061
 31
0.0
  0
LINE
  5
99
100
AcDbEntity
100
AcDbLine
  8
030 degrees
 62
256
370
-1
  6
ByLayer
 10
27.7320508075688821
 20
44.0333209967908061
 30
0.0
 11
30.0
 21
51.9615242270663202
 31
0.0
  0
LINE
  5
9A
100
AcDbEntity
100
AcDbLine
  8
090 degrees
 62
256
370
-1
  6
ByLayer
 10
-60.0
 20
0.0000000000000073
 30
0.0
 11
60.0
 21
-0.0000000000000067
 31
0.0
  0
LINE
  5
9B
100
AcDbEntity
100
AcDbLine
  8
090 degrees
 62
256
370
-1
  6
ByLayer
 10
60.0
 20
-0.0000000000000067
 30
0.0
 11
52.0
 21
2.0000000000000004
 31
0.0
  0
LINE
  5
9C
100
AcDbEntity
100
AcDbLine
  8
090 degrees
 62
256
370
-1
  6
ByLayer
 10
52.0
 20
2.0000000000000004
 30
0.0
 11
52.0
 21
-2.0000000000000067
 31
0.0
  0
LINE
  5
9D
100
AcDbEntity
100
AcDbLine
  8
090 degrees
 62
256
370
-1
  6
ByLayer
 10
52.0
 20
-2.0000000000000067
 30
0.0
 11
60.0
 21
-0.0000000000000067
 31
0.0
  0
LINE
  5
9E
100
AcDbEntity
100
AcDbLine
  8
150 degrees
 62
256
370
-1
  6
ByLayer
 10
-29.9999999999999858
 20
51.9615242270663202
 30
0.0
 11
30.0
 21
-51.9615242270663131
 31
0.0
  0
LINE
  5
9F
100
AcDbEntity
100
AcDbLine
  8
150 degrees
 62
256
370
-1
  6
ByLayer
 10
30.0
 20
-51.9615242270663131
 30
0.0
 11
27.7320508075688537
 21
-44.0333209967908203
 31
0.0
  0
LINE
  5
A0
100
AcDbEntity
100
AcDbLine
  8
150 degrees
 62
256
370
-1
  6
ByLayer
 10
27.7320508075688537
 20
-44.0333209967908203
 30
0.0
 11
24.2679491924311179
 21
-46.0333209967908061
 31
0.0
  0
LINE
  5
A1
100
AcDbEntity
100
AcDbLine
  8
150 degrees
 62
256
370
-1
  6
ByLayer
 10
24.2679491924311179
 20
-46.0333209967908061
 30
0.0
 11
30.0
 21
-51.9615242270663131
 31
0.0
  0
LINE
  5
A2
100
AcDbEntity
100
AcDbLine
  8
210 degrees
 62
256
370
-1
  6
ByLayer
 10
30.0000000000000284
 20
51.961524227066306
 30
0.0
 11
-30.0000000000000213
 21
-51.9615242270662989
 31
0.0
  0
LINE
  5
A3
100
AcDbEntity
100
AcDbLine
  8
210 degrees
 62
256
370
-1
  6
ByLayer
 10
-30.0000000000000213
 20
-51.9615242270662989
 30
0.0
 11
-24.2679491924311321
 21
-46.0333209967907919
 31
0.0
  0
LINE
  5
A4
100
AcDbEntity
100
AcDbLine
  8
210 degrees
 62
256
370
-1
  6
ByLayer
 10
-24.2679491924311321
 20
-46.0333209967907919
 30
0.0
 11
-27.7320508075689034
 21
-44.0333209967907848
 31
0.0
  0
LINE
  5
A5
100
AcDbEntity
100
AcDbLine
  8
210 degrees
 62
256
370
-1
  6
ByLayer
 10
-27.7320508075689034
 20
-44.0333209967907848
 30
0.0
 11
-30.0000000000000213
 21
-51.9615242270662989
 31
0.0
  0
LINE
  5
A6
100
AcDbEntity
100
AcDbLine
  8
270 degrees
 62
256
370
-1
  6
ByLayer
 10
60.0
 20
-0.00000000000002
 30
0.0
 11
-59.9999999999999929
 21
0.000000000000034
 31
0.0
  0
LINE
  5
A7
100
AcDbEntity
100
AcDbLine
  8
270 degrees
 62
256
370
-1
  6
ByLayer
 10
-59.9999999999999929
 20
0.000000000000034
 30
0.0
 11
-51.9999999999999787
 21
-1.9999999999999818
 31
0.0
  0
LINE
  5
A8
100
AcDbEntity
100
AcDbLine
  8
270 degrees
 62
256
370
-1
  6
ByLayer
 10
-51.9999999999999787
 20
-1.9999999999999818
 30
0.0
 11
-51.9999999999999929
 21
2.0000000000000417
 31
0.0
  0
LINE
  5
A9
100
AcDbEntity
100
AcDbLine
  8
270 degrees
 62
256
370
-1
  6
ByLayer
 10
-51.9999999999999929
 20
2.0000000000000417
 30
0.0
 11
-59.9999999999999929
 21
0.000000000000034
 31
0.0
  0
LINE
  5
AA
100
AcDbEntity
100
AcDbLine
  8
330 degrees
 62
256
370
-1
  6
ByLayer
 10
29.9999999999999574
 20
-51.9615242270663344
 30
0.0
 11
-29.9999999999999858
 21
51.9615242270663202
 31
0.0
  0
LINE
  5
AB
100
AcDbEntity
100
AcDbLine
  8
330 degrees
 62
256
370
-1
  6
ByLayer
 10
-29.9999999999999858
 20
51.9615242270663202
 30
0.0
 11
-27.7320508075688679
 21
44.033320996790799
 31
0.0
  0
LINE
  5
AC
100
AcDbEntity
100
AcDbLine
  8
330 degrees
 62
256
370
-1
  6
ByLayer
 10
-27.7320508075688679
 20
44.033320996790799
 30
0.0
 11
-24.2679491924311037
 21
46.0333209967908132
 31
0.0
  0
LINE
  5
AD
100
AcDbEntity
100
AcDbLine
  8
330 degrees
 62
256
370
-1
  6
ByLayer
 10
-24.2679491924311037
 20
46.0333209967908132
 30
0.0
 11
-29.9999999999999858
 21
51.9615242270663202
 31
0.0
  0
CIRCLE
  5
AE
100
AcDbEntity
100
AcDbCircle
  8
0
 62
256
370
-1
  6
ByLayer
 10
0.0
 20
0.0
 30
0.0
 40
2.2360679774997898
  0
ARC
  5
AF
100
AcDbEntity
  8
PWM
 62
256
370
-1
  6
ByLayer
100
AcDbCircle
 10
0.0
 20
0.0
 30
0.0
 40
70.0
100
AcDbArc
 50
59.9999999999999929
 51
80.0
  0
LINE
  5
B0
100
AcDbEntity
100
AcDbLine
  8
PWM
 62
256
370
-1
  6
ByLayer
 10
0.0000000000000036
 20
79.9999999999999858
 30
0.0
 11
0.0000000000000036
 21
70.0
 31
0.0
  0
LINE
  5
B1
100
AcDbEntity
100
AcDbLine
  8
PWM
 62
256
370
-1
  6
ByLayer
 10
40.0000000000000213
 20
69.28203230275507
 30
0.0
 11
35.0000000000000213
 21
60.6217782649106951
 31
0.0
  0
ARC
  5
B2
100
AcDbEntity
  8
PWM
 62
256
370
-1
  6
ByLayer
100
AcDbCircle
 10
0.0
 20
0.0
 30
0.0
 40
80.0
100
AcDbArc
 50
110.0
 51
119.9999999999999858
  0
ARC
  5
B3
100
AcDbEntity
  8
PWM
 62
256
370
-1
  6
ByLayer
100
AcDbCircle
 10
0.0
 20
0.0
 30
0.0
 40
80.0
100
AcDbArc
 50
170.0
 51
180.0
  0
ARC
  5
B4
100
AcDbEntity
  8
PWM
 62
256
370
-1
  6
ByLayer
100
AcDbCircle
 10
0.0
 20
0.0
 30
0.0
 40
80.0
100
AcDbArc
 50
230.0
 51
239.9999999999999716
  0
ARC
  5
B5
100
AcDbEntity
  8
PWM
 62
256
370
-1
  6
ByLayer
100
AcDbCircle
 10
0.0
 20
0.0
 30
0.0
 40
80.0
100
AcDbArc
 50
290.0
 51
299.9999999999999432
  0
ARC
  5
B6
100
AcDbEntity
  8
PWM
 62
256
370
-1
  6
ByLayer
100
AcDbCircle
 10
0.0
 20
0.0
 30
0.0
 40
80.0
100
AcDbArc
 50
350.0
 51
360.0
  0
ARC
  5
B7
100
AcDbEntity
  8
PWM
 62
256
370
-1
  6
ByLayer
100
AcDbCircle
 10
0.0
 20
0.0
 30
0.0
 40
80.0
100
AcDbArc
 50
49.9999999999999929
 51
59.9999999999999858
  0
ARC
  5
B8
100
AcDbEntity
  8
PWM
 62
256
370
-1
  6
ByLayer
100
AcDbCircle
 10
0.0
 20
0.0
 30
0.0
 40
70.0
100
AcDbArc
 50
119.9999999999999858
 51
140.0
  0
ARC
  5
B9
100
AcDbEntity
  8
PWM
 62
256
370
-1
  6
ByLayer
100
AcDbCircle
 10
0.0
 20
0.0
 30
0.0
 40
70.0
100
AcDbArc
 50
180.0
 51
199.9999999999999716
  0
ARC
  5
BA
100
AcDbEntity
  8
PWM
 62
256
370
-1
  6
ByLayer
100
AcDbCircle
 10
0.0
 20
0.0
 30
0.0
 40
70.0
100
AcDbArc
 50
239.9999999999999716
 51
260.0
  0
ARC
  5
BB
100
AcDbEntity
  8
PWM
 62
256
370
-1
  6
ByLayer
100
AcDbCircle
 10
0.0
 20
0.0
 30
0.0
 40
70.0
100
AcDbArc
 50
299.9999999999999432
 51
320.0
  0
ARC
  5
BC
100
AcDbEntity
  8
PWM
 62
256
370
-1
  6
ByLayer
100
AcDbCircle
 10
0.0
 20
0.0
 30
0.0
 40
70.0
100
AcDbArc
 50
359.9999999999999432
 51
19.9999999999999787
  0
ARC
  5
BD
100
AcDbEntity
  8
PWM
 62
256
370
-1
  6
ByLayer
100
AcDbCircle
 10
0.0
 20
0.0
 30
0.0
 40
70.0
100
AcDbArc
 50
59.9999999999999858
 51
80.0000000000000142
  0
LINE
  5
BE
100
AcDbEntity
100
AcDbLine
  8
PWM
 62
256
370
-1
  6
ByLayer
 10
-39.9999999999999716
 20
69.2820323027550842
 30
0.0
 11
-34.9999999999999858
 21
60.6217782649107093
 31
0.0
  0
LINE
  5
BF
100
AcDbEntity
100
AcDbLine
  8
PWM
 62
256
370
-1
  6
ByLayer
 10
-69.28203230275507
 20
40.0000000000000213
 30
0.0
 11
-60.6217782649106951
 21
35.0000000000000213
 31
0.0
  0
LINE
  5
C0
100
AcDbEntity
100
AcDbLine
  8
PWM
 62
256
370
-1
  6
ByLayer
 10
-79.9999999999999858
 20
0.0000000000000098
 30
0.0
 11
-70.0
 21
0.0000000000000086
 31
0.0
  0
LINE
  5
C1
100
AcDbEntity
100
AcDbLine
  8
PWM
 62
256
370
-1
  6
ByLayer
 10
-69.2820323027550984
 20
-39.9999999999999716
 30
0.0
 11
-60.6217782649107164
 21
-34.9999999999999787
 31
0.0
  0
LINE
  5
C2
100
AcDbEntity
100
AcDbLine
  8
PWM
 62
256
370
-1
  6
ByLayer
 10
-40.0000000000000284
 20
-69.2820323027550558
 30
0.0
 11
-35.0000000000000284
 21
-60.621778264910688
 31
0.0
  0
LINE
  5
C3
100
AcDbEntity
100
AcDbLine
  8
PWM
 62
256
370
-1
  6
ByLayer
 10
-0.0000000000000142
 20
-79.9999999999999858
 30
0.0
 11
-0.0000000000000142
 21
-70.0
 31
0.0
  0
LINE
  5
C4
100
AcDbEntity
100
AcDbLine
  8
PWM
 62
256
370
-1
  6
ByLayer
 10
39.9999999999999432
 20
-69.2820323027551126
 30
0.0
 11
34.9999999999999503
 21
-60.6217782649107306
 31
0.0
  0
LINE
  5
C5
100
AcDbEntity
100
AcDbLine
  8
PWM
 62
256
370
-1
  6
ByLayer
 10
69.2820323027550558
 20
-40.0000000000000284
 30
0.0
 11
60.621778264910688
 21
-35.0000000000000284
 31
0.0
  0
LINE
  5
C6
100
AcDbEntity
100
AcDbLine
  8
PWM
 62
256
370
-1
  6
ByLayer
 10
79.9999999999999858
 20
-0.0000000000000196
 30
0.0
 11
70.0
 21
-0.0000000000000171
 31
0.0
  0
LINE
  5
C7
100
AcDbEntity
100
AcDbLine
  8
PWM
 62
256
370
-1
  6
ByLayer
 10
69.2820323027551126
 20
39.9999999999999361
 30
0.0
 11
60.6217782649107306
 21
34.9999999999999503
 31
0.0
  0
LINE
  5
C8
100
AcDbEntity
100
AcDbLine
  8
PWM
 62
256
370
-1
  6
ByLayer
 10
40.0000000000000355
 20
69.2820323027550558
 30
0.0
 11
35.0000000000000355
 21
60.621778264910688
 31
0.0
  0
MTEXT
  5
C9
100
AcDbEntity
100
AcDbMText
  8
phase
 62
256
370
-1
  6
ByLayer
 10
-75.9607058635969139
 20
-53.2667964946446304
 30
0.0
 40
5.0
 41
100.0
 71
3
 72
2
  1
240
  7
iso
 50
0.0
 73
1
 44
1.0
  0
MTEXT
  5
CA
100
AcDbEntity
100
AcDbMText
  8
phase
 62
256
370
-1
  6
ByLayer
 10
-75.2698194976983643
 20
52.3466407010711166
 30
0.0
 40
5.0
 41
100.0
 71
9
 72
2
  1
300
  7
iso
 50
0.0
 73
1
 44
1.0
  0
MTEXT
  5
CB
100
AcDbEntity
100
AcDbMText
  8
phase
 62
256
370
-1
  6
ByLayer
 10
79.5123573820235805
 20
57.3320350535541223
 30
0.0
 40
5.0
 41
100.0
 71
1
 72
2
  1
60
  7
iso
 50
0.0
 73
1
 44
1.0
  0
MTEXT
  5
CC
100
AcDbEntity
100
AcDbMText
  8
phase
 62
256
370
-1
  6
ByLayer
 10
76.0848987646915731
 20
-53.2814021421616673
 30
0.0
 40
5.0
 41
100.0
 71
1
 72
2
  1
120
  7
iso
 50
0.0
 73
1
 44
1.0
  0
LINE
  5
CD
100
AcDbEntity
100
AcDbLine
  8
border
 62
5
370
-1
  6
CONTINUOUS
 10
-260.0
 20
-150.0
 30
0.0
 11
-260.0
 21
140.0
 31
0.0
  0
LINE
  5
CE
100
AcDbEntity
100
AcDbLine
  8
border
 62
256
370
-1
  6
ByLayer
 10
-260.0
 20
140.0
 30
0.0
 11
100.0
 21
140.0
 31
0.0
  0
LINE
  5
CF
100
AcDbEntity
100
AcDbLine
  8
border
 62
256
370
-1
  6
ByLayer
 10
-260.0
 20
-150.0
 30
0.0
 11
100.0
 21
-150.0
 31
0.0
  0
LINE
  5
D0
100
AcDbEntity
100
AcDbLine
  8
field U -
 62
256
370
-1
  6
ByLayer
 10
-0.0031759539556049
 20
0.0011133168851995
 30
0.0
 11
1.9968240460444378
 21
10.001113316885192
 31
0.0
  0
LINE
  5
D1
100
AcDbEntity
100
AcDbLine
  8
field U -
 62
256
370
-1
  6
ByLayer
 10
1.9968240460444378
 20
10.001113316885192
 30
0.0
 11
-2.0031759539555907
 21
10.0011133168852009
 31
0.0
  0
LINE
  5
D2
100
AcDbEntity
100
AcDbLine
  8
field U -
 62
256
370
-1
  6
ByLayer
 10
-2.0031759539555907
 20
10.0011133168852009
 30
0.0
 11
-0.0031759539556049
 21
0.0011133168851995
 31
0.0
  0
LINE
  5
D3
100
AcDbEntity
100
AcDbLine
  8
field U+
 62
256
370
-1
  6
ByLayer
 10
-200.0
 20
130.0
 30
0.0
 11
-190.0
 21
130.0
 31
0.0
  0
LINE
  5
D4
100
AcDbEntity
100
AcDbLine
  8
field V+
 62
256
370
-1
  6
ByLayer
 10
-180.0
 20
130.0
 30
0.0
 11
-170.0
 21
130.0
 31
0.0
  0
LINE
  5
D5
100
AcDbEntity
100
AcDbLine
  8
field V -
 62
256
370
-1
  6
ByLayer
 10
-190.0
 20
130.0
 30
0.0
 11
-180.0
 21
130.0
 31
0.0
  0
LINE
  5
D6
100
AcDbEntity
100
AcDbLine
  8
field W+
 62
256
370
-1
  6
ByLayer
 10
-160.0
 20
130.0
 30
0.0
 11
-150.0
 21
130.0
 31
0.0
  0
LINE
  5
D7
100
AcDbEntity
100
AcDbLine
  8
field W -
 62
256
370
-1
  6
ByLayer
 10
-170.0
 20
130.0
 30
0.0
 11
-160.0
 21
130.0
 31
0.0
  0
LINE
  5
D8
100
AcDbEntity
100
AcDbLine
  8
field U -
 62
256
370
-1
  6
ByLayer
 10
-210.0
 20
130.0
 30
0.0
 11
-200.0
 21
130.0
 31
0.0
  0
MTEXT
  5
D9
100
AcDbEntity
100
AcDbMText
  8
phase
 62
1
370
100
  6
ByLayer
 10
-3.780590717299674
 20
100.185654008441432
 30
0.0
 40
10.0
 41
100.0
 71
6
 72
2
  1
U
  7
iso
 50
0.0
 73
0
 44
1.0
  0
MTEXT
  5
DA
100
AcDbEntity
100
AcDbMText
  8
phase
 62
5
370
100
  6
ByLayer
 10
88.2909961721531715
 20
-39.9535287628689417
 30
0.0
 40
10.0
 41
100.0
 71
6
 72
2
  1
V
  7
iso
 50
0.0
 73
0
 44
1.0
  0
MTEXT
  5
DB
100
AcDbEntity
100
AcDbMText
  8
phase
 62
3
370
100
  6
ByLayer
 10
-82.8885988620632901
 20
-35.2103213242468627
 30
0.0
 40
10.0
 41
100.0
 71
6
 72
2
  1
W
  7
iso
 50
0.0
 73
0
 44
1.0
  0
MTEXT
  5
DC
100
AcDbEntity
100
AcDbMText
  8
phase
 62
256
370
-1
  6
ByLayer
 10
5.0
 20
100.0
 30
0.0
 40
5.0
 41
100.0
 71
1
 72
2
  1
0
  7
iso
 50
0.0
 73
1
 44
1.0
  0
MTEXT
  5
DD
100
AcDbEntity
100
AcDbMText
  8
phase
 62
256
370
-1
  6
ByLayer
 10
5.0
 20
-90.0
 30
0.0
 40
5.0
 41
100.0
 71
1
 72
2
  1
180
  7
iso
 50
0.0
 73
1
 44
1.0
  0
LINE
  5
DE
100
AcDbEntity
100
AcDbLine
  8
truthtable
 62
256
370
-1
  6
CONTINUOUS
 10
-220.0
 20
50.0
 30
0.0
 11
-220.0
 21
50.0
 31
0.0
  0
MTEXT
  5
DF
100
AcDbEntity
100
AcDbMText
  8
truthtable
 62
256
370
-1
  6
CONTINUOUS
 10
-215.2667887049663591
 20
108.4108307692310547
 30
0.0
 40
6.0
 41
100.0
 71
1
 72
2
  1
1
  7
iso
 50
0.0
 73
0
 44
1.0
  0
MTEXT
  5
E0
100
AcDbEntity
100
AcDbMText
  8
truthtable
 62
256
370
-1
  6
CONTINUOUS
 10
-218.4064498539439683
 20
18.3892689386565564
 30
0.0
 40
6.0
 41
100.0
 71
1
 72
2
  1
10
  7
iso
 50
0.0
 73
0
 44
1.0
  0
MTEXT
  5
E1
100
AcDbEntity
100
AcDbMText
  8
truthtable
 62
256
370
-1
  6
CONTINUOUS
 10
-218.4064498539439683
 20
8.3892689386565564
 30
0.0
 40
6.0
 41
100.0
 71
1
 72
2
  1
11
  7
iso
 50
0.0
 73
0
 44
1.0
  0
MTEXT
  5
E2
100
AcDbEntity
100
AcDbMText
  8
truthtable
 62
256
370
-1
  6
CONTINUOUS
 10
-218.4064498539439683
 20
-1.6107310613434436
 30
0.0
 40
6.0
 41
100.0
 71
1
 72
2
  1
12
  7
iso
 50
0.0
 73
0
 44
1.0
  0
MTEXT
  5
E3
100
AcDbEntity
100
AcDbMText
  8
truthtable
 62
256
370
-1
  6
CONTINUOUS
 10
-215.2667887049663591
 20
88.4108307692310547
 30
0.0
 40
6.0
 41
100.0
 71
1
 72
2
  1
3
  7
iso
 50
0.0
 73
0
 44
1.0
  0
MTEXT
  5
E4
100
AcDbEntity
100
AcDbMText
  8
truthtable
 62
256
370
-1
  6
CONTINUOUS
 10
-215.2667887049663591
 20
78.4108307692310547
 30
0.0
 40
6.0
 41
100.0
 71
1
 72
2
  1
4
  7
iso
 50
0.0
 73
0
 44
1.0
  0
MTEXT
  5
E5
100
AcDbEntity
100
AcDbMText
  8
truthtable
 62
256
370
-1
  6
CONTINUOUS
 10
-215.2667887049663591
 20
68.4108307692310547
 30
0.0
 40
6.0
 41
100.0
 71
1
 72
2
  1
5
  7
iso
 50
0.0
 73
0
 44
1.0
  0
MTEXT
  5
E6
100
AcDbEntity
100
AcDbMText
  8
truthtable
 62
256
370
-1
  6
CONTINUOUS
 10
-215.2667887049663591
 20
58.4108307692310547
 30
0.0
 40
6.0
 41
100.0
 71
1
 72
2
  1
6
  7
iso
 50
0.0
 73
0
 44
1.0
  0
MTEXT
  5
E7
100
AcDbEntity
100
AcDbMText
  8
truthtable
 62
256
370
-1
  6
CONTINUOUS
 10
-215.2667887049663591
 20
48.4108307692310547
 30
0.0
 40
6.0
 41
100.0
 71
1
 72
2
  1
7
  7
iso
 50
0.0
 73
0
 44
1.0
  0
MTEXT
  5
E8
100
AcDbEntity
100
AcDbMText
  8
truthtable
 62
256
370
-1
  6
CONTINUOUS
 10
-215.2667887049663591
 20
38.4108307692310547
 30
0.0
 40
6.0
 41
100.0
 71
1
 72
2
  1
8
  7
iso
 50
0.0
 73
0
 44
1.0
  0
MTEXT
  5
E9
100
AcDbEntity
100
AcDbMText
  8
truthtable
 62
256
370
-1
  6
CONTINUOUS
 10
-215.2667887049663591
 20
28.4108307692310547
 30
0.0
 40
6.0
 41
100.0
 71
1
 72
2
  1
9
  7
iso
 50
0.0
 73
0
 44
1.0
  0
LINE
  5
EA
100
AcDbEntity
100
AcDbLine
  8
truthtable
 62
256
370
-1
  6
CONTINUOUS
 10
-200.0
 20
120.0
 30
0.0
 11
-200.0
 21
-10.0
 31
0.0
  0
LINE
  5
EB
100
AcDbEntity
100
AcDbLine
  8
truthtable
 62
256
370
-1
  6
CONTINUOUS
 10
-190.0
 20
-10.0
 30
0.0
 11
-190.0
 21
120.0
 31
0.0
  0
LINE
  5
EC
100
AcDbEntity
100
AcDbLine
  8
truthtable
 62
256
370
-1
  6
CONTINUOUS
 10
-180.0
 20
120.0
 30
0.0
 11
-180.0
 21
-10.0
 31
0.0
  0
LINE
  5
ED
100
AcDbEntity
100
AcDbLine
  8
truthtable
 62
256
370
-1
  6
CONTINUOUS
 10
-170.0
 20
-10.0
 30
0.0
 11
-170.0
 21
120.0
 31
0.0
  0
LINE
  5
EE
100
AcDbEntity
100
AcDbLine
  8
truthtable
 62
256
370
-1
  6
CONTINUOUS
 10
-160.0
 20
120.0
 30
0.0
 11
-160.0
 21
-10.0
 31
0.0
  0
LINE
  5
EF
100
AcDbEntity
100
AcDbLine
  8
truthtable
 62
256
370
-1
  6
CONTINUOUS
 10
-220.0
 20
110.0
 30
0.0
 11
-150.0
 21
110.0
 31
0.0
  0
LINE
  5
F0
100
AcDbEntity
100
AcDbLine
  8
truthtable
 62
256
370
-1
  6
CONTINUOUS
 10
-220.0
 20
80.0
 30
0.0
 11
-150.0
 21
80.0
 31
0.0
  0
LINE
  5
F1
100
AcDbEntity
100
AcDbLine
  8
truthtable
 62
256
370
-1
  6
CONTINUOUS
 10
-220.0
 20
70.0
 30
0.0
 11
-150.0
 21
70.0
 31
0.0
  0
LINE
  5
F2
100
AcDbEntity
100
AcDbLine
  8
truthtable
 62
256
370
-1
  6
CONTINUOUS
 10
-220.0
 20
60.0
 30
0.0
 11
-150.0
 21
60.0
 31
0.0
  0
LINE
  5
F3
100
AcDbEntity
100
AcDbLine
  8
truthtable
 62
256
370
-1
  6
CONTINUOUS
 10
-220.0
 20
50.0
 30
0.0
 11
-150.0
 21
50.0
 31
0.0
  0
LINE
  5
F4
100
AcDbEntity
100
AcDbLine
  8
truthtable
 62
256
370
-1
  6
CONTINUOUS
 10
-220.0
 20
40.0
 30
0.0
 11
-150.0
 21
40.0
 31
0.0
  0
LINE
  5
F5
100
AcDbEntity
100
AcDbLine
  8
truthtable
 62
256
370
-1
  6
CONTINUOUS
 10
-220.0
 20
30.0
 30
0.0
 11
-150.0
 21
30.0
 31
0.0
  0
LINE
  5
F6
100
AcDbEntity
100
AcDbLine
  8
truthtable
 62
256
370
-1
  6
CONTINUOUS
 10
-220.0
 20
20.0
 30
0.0
 11
-150.0
 21
20.0
 31
0.0
  0
LINE
  5
F7
100
AcDbEntity
100
AcDbLine
  8
truthtable
 62
256
370
-1
  6
CONTINUOUS
 10
-220.0
 20
10.0
 30
0.0
 11
-150.0
 21
10.0
 31
0.0
  0
LINE
  5
F8
100
AcDbEntity
100
AcDbLine
  8
truthtable
 62
256
370
-1
  6
CONTINUOUS
 10
-220.0
 20
0.0
 30
0.0
 11
-150.0
 21
0.0
 31
0.0
  0
MTEXT
  5
F9
100
AcDbEntity
100
AcDbMText
  8
truthtable
 62
256
370
-1
  6
CONTINUOUS
 10
-209.150925024342996
 20
118.9892891918210296
 30
0.0
 40
5.0
 41
100.0
 71
1
 72
2
  1
U-
  7
iso
 50
0.0
 73
0
 44
1.0
  0
MTEXT
  5
FA
100
AcDbEntity
100
AcDbMText
  8
truthtable
 62
256
370
-1
  6
CONTINUOUS
 10
-199.150925024342996
 20
118.9892891918210296
 30
0.0
 40
5.0
 41
100.0
 71
1
 72
2
  1
U+
  7
iso
 50
0.0
 73
0
 44
1.0
  0
MTEXT
  5
FB
100
AcDbEntity
100
AcDbMText
  8
truthtable
 62
256
370
-1
  6
CONTINUOUS
 10
-189.150925024342996
 20
118.9892891918210296
 30
0.0
 40
5.0
 41
100.0
 71
1
 72
2
  1
V-
  7
iso
 50
0.0
 73
0
 44
1.0
  0
MTEXT
  5
FC
100
AcDbEntity
100
AcDbMText
  8
truthtable
 62
256
370
-1
  6
CONTINUOUS
 10
-179.150925024342996
 20
118.9892891918210296
 30
0.0
 40
5.0
 41
100.0
 71
1
 72
2
  1
V+
  7
iso
 50
0.0
 73
0
 44
1.0
  0
MTEXT
  5
FD
100
AcDbEntity
100
AcDbMText
  8
truthtable
 62
256
370
-1
  6
CONTINUOUS
 10
-169.150925024342996
 20
118.9892891918210296
 30
0.0
 40
5.0
 41
100.0
 71
1
 72
2
  1
W-
  7
iso
 50
0.0
 73
0
 44
1.0
  0
MTEXT
  5
FE
100
AcDbEntity
100
AcDbMText
  8
truthtable
 62
256
370
-1
  6
CONTINUOUS
 10
-159.150925024342996
 20
118.9892891918210296
 30
0.0
 40
5.0
 41
100.0
 71
1
 72
2
  1
W+
  7
iso
 50
0.0
 73
0
 44
1.0
  0
MTEXT
  5
FF
100
AcDbEntity
100
AcDbMText
  8
truthtable
 62
256
370
-1
  6
CONTINUOUS
 10
-215.2667887049663591
 20
98.4108307692310547
 30
0.0
 40
6.0
 41
100.0
 71
1
 72
2
  1
2
  7
iso
 50
0.0
 73
0
 44
1.0
  0
LINE
  5
100
100
AcDbEntity
100
AcDbLine
  8
truthtable
 62
256
370
-1
  6
CONTINUOUS
 10
-220.0
 20
120.0
 30
0.0
 11
-220.0
 21
120.0
 31
0.0
  0
LINE
  5
101
100
AcDbEntity
100
AcDbLine
  8
truthtable
 62
256
370
-1
  6
CONTINUOUS
 10
-220.0
 20
120.0
 30
0.0
 11
-220.0
 21
-10.0
 31
0.0
  0
LINE
  5
102
100
AcDbEntity
100
AcDbLine
  8
truthtable
 62
256
370
-1
  6
CONTINUOUS
 10
-220.0
 20
120.0
 30
0.0
 11
-150.0
 21
120.0
 31
0.0
  0
LINE
  5
103
100
AcDbEntity
100
AcDbLine
  8
truthtable
 62
256
370
-1
  6
CONTINUOUS
 10
-220.0
 20
100.0
 30
0.0
 11
-150.0
 21
100.0
 31
0.0
  0
LINE
  5
104
100
AcDbEntity
100
AcDbLine
  8
truthtable
 62
256
370
-1
  6
CONTINUOUS
 10
-220.0
 20
90.0
 30
0.0
 11
-150.0
 21
90.0
 31
0.0
  0
LINE
  5
105
100
AcDbEntity
100
AcDbLine
  8
truthtable
 62
256
370
-1
  6
CONTINUOUS
 10
-220.0
 20
-10.0
 30
0.0
 11
-150.0
 21
-10.0
 31
0.0
  0
LINE
  5
106
100
AcDbEntity
100
AcDbLine
  8
truthtable
 62
256
370
-1
  6
CONTINUOUS
 10
-150.0
 20
120.0
 30
0.0
 11
-150.0
 21
-10.0
 31
0.0
  0
LINE
  5
107
100
AcDbEntity
100
AcDbLine
  8
030 degrees
 62
256
370
-1
  6
ByLayer
 10
-230.0
 20
110.0
 30
0.0
 11
-140.0
 21
110.0
 31
0.0
  0
LINE
  5
108
100
AcDbEntity
100
AcDbLine
  8
030 degrees
 62
256
370
-1
  6
ByLayer
 10
-140.0
 20
110.0
 30
0.0
 11
-140.0
 21
100.0
 31
0.0
  0
LINE
  5
109
100
AcDbEntity
100
AcDbLine
  8
030 degrees
 62
256
370
-1
  6
ByLayer
 10
-140.0
 20
100.0
 30
0.0
 11
-230.0
 21
100.0
 31
0.0
  0
LINE
  5
10A
100
AcDbEntity
100
AcDbLine
  8
030 degrees
 62
256
370
-1
  6
ByLayer
 10
-230.0
 20
100.0
 30
0.0
 11
-230.0
 21
110.0
 31
0.0
  0
LINE
  5
10B
100
AcDbEntity
100
AcDbLine
  8
060 degrees
 62
256
370
-1
  6
DASHED2
 10
-140.0
 20
100.0
 30
0.0
 11
-140.0
 21
90.0
 31
0.0
  0
LINE
  5
10C
100
AcDbEntity
100
AcDbLine
  8
060 degrees
 62
256
370
-1
  6
DASHED2
 10
-140.0
 20
90.0
 30
0.0
 11
-230.0
 21
90.0
 31
0.0
  0
LINE
  5
10D
100
AcDbEntity
100
AcDbLine
  8
060 degrees
 62
256
370
-1
  6
DASHED2
 10
-230.0
 20
90.0
 30
0.0
 11
-230.0
 21
100.0
 31
0.0
  0
MTEXT
  5
10E
100
AcDbEntity
100
AcDbMText
  8
truthtable
 62
256
370
-1
  6
CONTINUOUS
 10
-196.5053380782917998
 20
108.3392645314353473
 30
0.0
 40
6.0
 41
100.0
 71
1
 72
2
  1
1
  7
iso
 50
0.0
 73
0
 44
1.0
  0
MTEXT
  5
10F
100
AcDbEntity
100
AcDbMText
  8
truthtable
 62
256
370
-1
  6
CONTINUOUS
 10
-166.5053380782917998
 20
108.3392645314353473
 30
0.0
 40
6.0
 41
100.0
 71
1
 72
2
  1
1
  7
iso
 50
0.0
 73
0
 44
1.0
  0
LINE
  5
110
100
AcDbEntity
100
AcDbLine
  8
060 degrees
 62
256
370
-1
  6
DASHED2
 10
-230.0
 20
100.0
 30
0.0
 11
-140.0
 21
100.0
 31
0.0
  0
LINE
  5
111
100
AcDbEntity
100
AcDbLine
  8
090 degrees
 62
256
370
-1
  6
ByLayer
 10
-230.0
 20
90.0
 30
0.0
 11
-140.0
 21
90.0
 31
0.0
  0
LINE
  5
112
100
AcDbEntity
100
AcDbLine
  8
090 degrees
 62
256
370
-1
  6
ByLayer
 10
-140.0
 20
90.0
 30
0.0
 11
-140.0
 21
80.0
 31
0.0
  0
LINE
  5
113
100
AcDbEntity
100
AcDbLine
  8
090 degrees
 62
256
370
-1
  6
ByLayer
 10
-140.0
 20
80.0
 30
0.0
 11
-230.0
 21
80.0
 31
0.0
  0
LINE
  5
114
100
AcDbEntity
100
AcDbLine
  8
090 degrees
 62
256
370
-1
  6
ByLayer
 10
-230.0
 20
80.0
 30
0.0
 11
-230.0
 21
90.0
 31
0.0
  0
LINE
  5
115
100
AcDbEntity
100
AcDbLine
  8
120 degrees
 62
256
370
-1
  6
DASHED2
 10
-140.0
 20
80.0
 30
0.0
 11
-140.0
 21
70.0
 31
0.0
  0
LINE
  5
116
100
AcDbEntity
100
AcDbLine
  8
120 degrees
 62
256
370
-1
  6
DASHED2
 10
-140.0
 20
70.0
 30
0.0
 11
-230.0
 21
70.0
 31
0.0
  0
LINE
  5
117
100
AcDbEntity
100
AcDbLine
  8
120 degrees
 62
256
370
-1
  6
DASHED2
 10
-230.0
 20
70.0
 30
0.0
 11
-230.0
 21
80.0
 31
0.0
  0
MTEXT
  5
118
100
AcDbEntity
100
AcDbMText
  8
truthtable
 62
256
370
-1
  6
CONTINUOUS
 10
-176.5053380782917998
 20
88.3392645314353473
 30
0.0
 40
6.0
 41
100.0
 71
1
 72
2
  1
1
  7
iso
 50
0.0
 73
0
 44
1.0
  0
MTEXT
  5
119
100
AcDbEntity
100
AcDbMText
  8
truthtable
 62
256
370
-1
  6
CONTINUOUS
 10
-166.5053380782917998
 20
88.3392645314353473
 30
0.0
 40
6.0
 41
100.0
 71
1
 72
2
  1
1
  7
iso
 50
0.0
 73
0
 44
1.0
  0
LINE
  5
11A
100
AcDbEntity
100
AcDbLine
  8
120 degrees
 62
256
370
-1
  6
DASHED2
 10
-230.0
 20
80.0
 30
0.0
 11
-140.0
 21
80.0
 31
0.0
  0
LINE
  5
11B
100
AcDbEntity
100
AcDbLine
  8
150 degrees
 62
256
370
-1
  6
ByLayer
 10
-230.0
 20
70.0
 30
0.0
 11
-140.0
 21
70.0
 31
0.0
  0
LINE
  5
11C
100
AcDbEntity
100
AcDbLine
  8
150 degrees
 62
256
370
-1
  6
ByLayer
 10
-140.0
 20
70.0
 30
0.0
 11
-140.0
 21
60.0
 31
0.0
  0
LINE
  5
11D
100
AcDbEntity
100
AcDbLine
  8
150 degrees
 62
256
370
-1
  6
ByLayer
 10
-140.0
 20
60.0
 30
0.0
 11
-230.0
 21
60.0
 31
0.0
  0
LINE
  5
11E
100
AcDbEntity
100
AcDbLine
  8
150 degrees
 62
256
370
-1
  6
ByLayer
 10
-230.0
 20
60.0
 30
0.0
 11
-230.0
 21
70.0
 31
0.0
  0
LINE
  5
11F
100
AcDbEntity
100
AcDbLine
  8
180 degrees
 62
256
370
-1
  6
DASHED2
 10
-230.0
 20
60.0
 30
0.0
 11
-140.0
 21
60.0
 31
0.0
  0
LINE
  5
120
100
AcDbEntity
100
AcDbLine
  8
180 degrees
 62
256
370
-1
  6
DASHED2
 10
-140.0
 20
60.0
 30
0.0
 11
-140.0
 21
50.0
 31
0.0
  0
LINE
  5
121
100
AcDbEntity
100
AcDbLine
  8
180 degrees
 62
256
370
-1
  6
DASHED2
 10
-140.0
 20
50.0
 30
0.0
 11
-230.0
 21
50.0
 31
0.0
  0
LINE
  5
122
100
AcDbEntity
100
AcDbLine
  8
180 degrees
 62
256
370
-1
  6
DASHED2
 10
-230.0
 20
50.0
 30
0.0
 11
-230.0
 21
60.0
 31
0.0
  0
MTEXT
  5
123
100
AcDbEntity
100
AcDbMText
  8
truthtable
 62
256
370
-1
  6
CONTINUOUS
 10
-176.5053380782917998
 20
68.3392645314353473
 30
0.0
 40
6.0
 41
100.0
 71
1
 72
2
  1
1
  7
iso
 50
0.0
 73
0
 44
1.0
  0
MTEXT
  5
124
100
AcDbEntity
100
AcDbMText
  8
truthtable
 62
256
370
-1
  6
CONTINUOUS
 10
-206.5053380782917998
 20
68.3392645314353473
 30
0.0
 40
6.0
 41
100.0
 71
1
 72
2
  1
1
  7
iso
 50
0.0
 73
0
 44
1.0
  0
LINE
  5
125
100
AcDbEntity
100
AcDbLine
  8
210 degrees
 62
256
370
-1
  6
ByLayer
 10
-230.0
 20
50.0
 30
0.0
 11
-140.0
 21
50.0
 31
0.0
  0
LINE
  5
126
100
AcDbEntity
100
AcDbLine
  8
210 degrees
 62
256
370
-1
  6
ByLayer
 10
-140.0
 20
50.0
 30
0.0
 11
-140.0
 21
40.0
 31
0.0
  0
LINE
  5
127
100
AcDbEntity
100
AcDbLine
  8
210 degrees
 62
256
370
-1
  6
ByLayer
 10
-140.0
 20
40.0
 30
0.0
 11
-230.0
 21
40.0
 31
0.0
  0
LINE
  5
128
100
AcDbEntity
100
AcDbLine
  8
210 degrees
 62
256
370
-1
  6
ByLayer
 10
-230.0
 20
40.0
 30
0.0
 11
-230.0
 21
50.0
 31
0.0
  0
LINE
  5
129
100
AcDbEntity
100
AcDbLine
  8
240 degrees
 62
256
370
-1
  6
DASHED2
 10
-230.0
 20
40.0
 30
0.0
 11
-140.0
 21
40.0
 31
0.0
  0
LINE
  5
12A
100
AcDbEntity
100
AcDbLine
  8
240 degrees
 62
256
370
-1
  6
DASHED2
 10
-140.0
 20
40.0
 30
0.0
 11
-140.0
 21
30.0
 31
0.0
  0
LINE
  5
12B
100
AcDbEntity
100
AcDbLine
  8
240 degrees
 62
256
370
-1
  6
DASHED2
 10
-140.0
 20
30.0
 30
0.0
 11
-230.0
 21
30.0
 31
0.0
  0
LINE
  5
12C
100
AcDbEntity
100
AcDbLine
  8
240 degrees
 62
256
370
-1
  6
DASHED2
 10
-230.0
 20
30.0
 30
0.0
 11
-230.0
 21
40.0
 31
0.0
  0
MTEXT
  5
12D
100
AcDbEntity
100
AcDbMText
  8
truthtable
 62
256
370
-1
  6
CONTINUOUS
 10
-206.5053380782917998
 20
48.3392645314353473
 30
0.0
 40
6.0
 41
100.0
 71
1
 72
2
  1
1
  7
iso
 50
0.0
 73
0
 44
1.0
  0
MTEXT
  5
12E
100
AcDbEntity
100
AcDbMText
  8
truthtable
 62
256
370
-1
  6
CONTINUOUS
 10
-156.5053380782917998
 20
48.3392645314353473
 30
0.0
 40
6.0
 41
100.0
 71
1
 72
2
  1
1
  7
iso
 50
0.0
 73
0
 44
1.0
  0
LINE
  5
12F
100
AcDbEntity
100
AcDbLine
  8
270 degrees
 62
256
370
-1
  6
ByLayer
 10
-230.0
 20
30.0
 30
0.0
 11
-140.0
 21
30.0
 31
0.0
  0
LINE
  5
130
100
AcDbEntity
100
AcDbLine
  8
270 degrees
 62
256
370
-1
  6
ByLayer
 10
-140.0
 20
30.0
 30
0.0
 11
-140.0
 21
20.0
 31
0.0
  0
LINE
  5
131
100
AcDbEntity
100
AcDbLine
  8
270 degrees
 62
256
370
-1
  6
ByLayer
 10
-140.0
 20
20.0
 30
0.0
 11
-230.0
 21
20.0
 31
0.0
  0
LINE
  5
132
100
AcDbEntity
100
AcDbLine
  8
270 degrees
 62
256
370
-1
  6
ByLayer
 10
-230.0
 20
20.0
 30
0.0
 11
-230.0
 21
30.0
 31
0.0
  0
LINE
  5
133
100
AcDbEntity
100
AcDbLine
  8
300 degrees
 62
256
370
-1
  6
DASHED2
 10
-230.0
 20
20.0
 30
0.0
 11
-140.0
 21
20.0
 31
0.0
  0
LINE
  5
134
100
AcDbEntity
100
AcDbLine
  8
300 degrees
 62
256
370
-1
  6
DASHED2
 10
-140.0
 20
20.0
 30
0.0
 11
-140.0
 21
10.0
 31
0.0
  0
LINE
  5
135
100
AcDbEntity
100
AcDbLine
  8
300 degrees
 62
256
370
-1
  6
DASHED2
 10
-140.0
 20
10.0
 30
0.0
 11
-230.0
 21
10.0
 31
0.0
  0
LINE
  5
136
100
AcDbEntity
100
AcDbLine
  8
300 degrees
 62
256
370
-1
  6
DASHED2
 10
-230.0
 20
10.0
 30
0.0
 11
-230.0
 21
20.0
 31
0.0
  0
MTEXT
  5
137
100
AcDbEntity
100
AcDbMText
  8
truthtable
 62
256
370
-1
  6
CONTINUOUS
 10
-156.5053380782917998
 20
28.3392645314353473
 30
0.0
 40
6.0
 41
100.0
 71
1
 72
2
  1
1
  7
iso
 50
0.0
 73
0
 44
1.0
  0
MTEXT
  5
138
100
AcDbEntity
100
AcDbMText
  8
truthtable
 62
256
370
-1
  6
CONTINUOUS
 10
-186.5053380782917998
 20
28.3392645314353473
 30
0.0
 40
6.0
 41
100.0
 71
1
 72
2
  1
1
  7
iso
 50
0.0
 73
0
 44
1.0
  0
MTEXT
  5
139
100
AcDbEntity
100
AcDbMText
  8
truthtable
 62
256
370
-1
  6
CONTINUOUS
 10
-186.5053380782917998
 20
8.3392645314353473
 30
0.0
 40
6.0
 41
100.0
 71
1
 72
2
  1
1
  7
iso
 50
0.0
 73
0
 44
1.0
  0
MTEXT
  5
13A
100
AcDbEntity
100
AcDbMText
  8
truthtable
 62
256
370
-1
  6
CONTINUOUS
 10
-196.5053380782917998
 20
8.3392645314353473
 30
0.0
 40
6.0
 41
100.0
 71
1
 72
2
  1
1
  7
iso
 50
0.0
 73
0
 44
1.0
  0
LINE
  5
13B
100
AcDbEntity
100
AcDbLine
  8
truthtable
 62
5
370
40
  6
CONTINUOUS
 10
-210.0
 20
130.0
 30
0.0
 11
-210.0
 21
-20.0
 31
0.0
  0
LINE
  5
13C
100
AcDbEntity
100
AcDbLine
  8
field U+
 62
256
370
-1
  6
ByLayer
 10
-190.0
 20
-20.0
 30
0.0
 11
-200.0
 21
-20.0
 31
0.0
  0
LINE
  5
13D
100
AcDbEntity
100
AcDbLine
  8
field V+
 62
256
370
-1
  6
ByLayer
 10
-170.0
 20
-20.0
 30
0.0
 11
-180.0
 21
-20.0
 31
0.0
  0
LINE
  5
13E
100
AcDbEntity
100
AcDbLine
  8
field V -
 62
256
370
-1
  6
ByLayer
 10
-180.0
 20
-20.0
 30
0.0
 11
-190.0
 21
-20.0
 31
0.0
  0
LINE
  5
13F
100
AcDbEntity
100
AcDbLine
  8
field W+
 62
256
370
-1
  6
ByLayer
 10
-150.0
 20
-20.0
 30
0.0
 11
-160.0
 21
-20.0
 31
0.0
  0
LINE
  5
140
100
AcDbEntity
100
AcDbLine
  8
field W -
 62
256
370
-1
  6
ByLayer
 10
-160.0
 20
-20.0
 30
0.0
 11
-170.0
 21
-20.0
 31
0.0
  0
LINE
  5
141
100
AcDbEntity
100
AcDbLine
  8
field U -
 62
256
370
-1
  6
ByLayer
 10
-200.0
 20
-20.0
 30
0.0
 11
-210.0
 21
-20.0
 31
0.0
  0
LINE
  5
142
100
AcDbEntity
100
AcDbLine
  8
field U -
 62
256
370
-1
  6
ByLayer
 10
-210.0
 20
-20.0
 30
0.0
 11
-210.0
 21
130.0
 31
0.0
  0
LINE
  5
143
100
AcDbEntity
100
AcDbLine
  8
field U+
 62
256
370
-1
  6
ByLayer
 10
-200.0
 20
-20.0
 30
0.0
 11
-200.0
 21
130.0
 31
0.0
  0
LINE
  5
144
100
AcDbEntity
100
AcDbLine
  8
field U+
 62
256
370
-1
  6
ByLayer
 10
-190.0
 20
130.0
 30
0.0
 11
-190.0
 21
-20.0
 31
0.0
  0
LINE
  5
145
100
AcDbEntity
100
AcDbLine
  8
field V+
 62
256
370
-1
  6
ByLayer
 10
-180.0
 20
-20.0
 30
0.0
 11
-180.0
 21
130.0
 31
0.0
  0
LINE
  5
146
100
AcDbEntity
100
AcDbLine
  8
field V+
 62
256
370
-1
  6
ByLayer
 10
-170.0
 20
130.0
 30
0.0
 11
-170.0
 21
-20.0
 31
0.0
  0
LINE
  5
147
100
AcDbEntity
100
AcDbLine
  8
field W+
 62
256
370
-1
  6
ByLayer
 10
-160.0
 20
-20.0
 30
0.0
 11
-160.0
 21
130.0
 31
0.0
  0
LINE
  5
148
100
AcDbEntity
100
AcDbLine
  8
field W+
 62
256
370
-1
  6
ByLayer
 10
-150.0
 20
130.0
 30
0.0
 11
-150.0
 21
-20.0
 31
0.0
  0
LINE
  5
149
100
AcDbEntity
100
AcDbLine
  8
field U -
 62
256
370
-1
  6
ByLayer
 10
-200.0
 20
130.0
 30
0.0
 11
-200.0
 21
-20.0
 31
0.0
  0
LINE
  5
14A
100
AcDbEntity
100
AcDbLine
  8
field V -
 62
256
370
-1
  6
ByLayer
 10
-190.0
 20
-20.0
 30
0.0
 11
-190.0
 21
130.0
 31
0.0
  0
LINE
  5
14B
100
AcDbEntity
100
AcDbLine
  8
field V -
 62
256
370
-1
  6
ByLayer
 10
-180.0
 20
130.0
 30
0.0
 11
-180.0
 21
-20.0
 31
0.0
  0
LINE
  5
14C
100
AcDbEntity
100
AcDbLine
  8
field W -
 62
256
370
-1
  6
ByLayer
 10
-170.0
 20
-20.0
 30
0.0
 11
-170.0
 21
130.0
 31
0.0
  0
LINE
  5
14D
100
AcDbEntity
100
AcDbLine
  8
field W -
 62
256
370
-1
  6
ByLayer
 10
-160.0
 20
130.0
 30
0.0
 11
-160.0
 21
-20.0
 31
0.0
  0
LINE
  5
14E
100
AcDbEntity
100
AcDbLine
  8
330 degrees
 62
256
370
-1
  6
ByLayer
 10
-230.0
 20
10.0
 30
0.0
 11
-140.0
 21
10.0
 31
0.0
  0
LINE
  5
14F
100
AcDbEntity
100
AcDbLine
  8
330 degrees
 62
256
370
-1
  6
ByLayer
 10
-140.0
 20
10.0
 30
0.0
 11
-140.0
 21
0.0
 31
0.0
  0
LINE
  5
150
100
AcDbEntity
100
AcDbLine
  8
330 degrees
 62
256
370
-1
  6
ByLayer
 10
-140.0
 20
0.0
 30
0.0
 11
-230.0
 21
0.0
 31
0.0
  0
LINE
  5
151
100
AcDbEntity
100
AcDbLine
  8
330 degrees
 62
256
370
-1
  6
ByLayer
 10
-230.0
 20
0.0
 30
0.0
 11
-230.0
 21
10.0
 31
0.0
  0
LINE
  5
152
100
AcDbEntity
100
AcDbLine
  8
360 degrees
 62
256
370
-1
  6
DASHED2
 10
-230.0
 20
0.0
 30
0.0
 11
-140.0
 21
0.0
 31
0.0
  0
LINE
  5
153
100
AcDbEntity
100
AcDbLine
  8
360 degrees
 62
256
370
-1
  6
DASHED2
 10
-140.0
 20
0.0
 30
0.0
 11
-140.0
 21
-10.0
 31
0.0
  0
LINE
  5
154
100
AcDbEntity
100
AcDbLine
  8
360 degrees
 62
256
370
-1
  6
DASHED2
 10
-140.0
 20
-10.0
 30
0.0
 11
-230.0
 21
-10.0
 31
0.0
  0
LINE
  5
155
100
AcDbEntity
100
AcDbLine
  8
360 degrees
 62
256
370
-1
  6
DASHED2
 10
-230.0
 20
-10.0
 30
0.0
 11
-230.0
 21
0.0
 31
0.0
  0
LINE
  5
156
100
AcDbEntity
100
AcDbLine
  8
060 degrees
 62
256
370
-1
  6
DASHED2
 10
-51.9615242270663984
 20
-29.9999999999998721
 30
0.0
 11
51.9615242270663202
 21
30.0000000000000107
 31
0.0
  0
LINE
  5
157
100
AcDbEntity
100
AcDbLine
  8
120 degrees
 62
256
370
-1
  6
DASHED2
 10
-51.9615242270662492
 20
30.000000000000135
 30
0.0
 11
51.9615242270663131
 21
-30.0000000000000355
 31
0.0
  0
LINE
  5
158
100
AcDbEntity
100
AcDbLine
  8
180 degrees
 62
256
370
-1
  6
DASHED2
 10
0.0000000000001369
 20
60.0000000000000071
 30
0.0
 11
-0.0000000000000643
 21
-60.0000000000000142
 31
0.0
  0
LINE
  5
159
100
AcDbEntity
100
AcDbLine
  8
240 degrees
 62
256
370
-1
  6
DASHED2
 10
51.9615242270663842
 20
29.9999999999999041
 30
0.0
 11
-51.9615242270663842
 21
-29.9999999999999574
 31
0.0
  0
LINE
  5
15A
100
AcDbEntity
100
AcDbLine
  8
300 degrees
 62
256
370
-1
  6
DASHED2
 10
51.961524227066235
 20
-30.0000000000001741
 30
0.0
 11
-51.961524227066306
 21
30.0000000000000817
 31
0.0
  0
LINE
  5
15B
100
AcDbEntity
100
AcDbLine
  8
360 degrees
 62
256
370
-1
  6
DASHED2
 10
-0.0000000000002242
 20
-60.0000000000000142
 30
0.0
 11
0.000000000000057
 21
60.0000000000000284
 31
0.0
  0
LINE
  5
15C
100
AcDbEntity
100
AcDbLine
  8
060 degrees
 62
256
370
-1
  6
CONTINUOUS
 10
51.9615242270663202
 20
30.0000000000000107
 30
0.0
 11
44.0333209967908132
 21
27.7320508075688785
 31
0.0
  0
LINE
  5
15D
100
AcDbEntity
100
AcDbLine
  8
060 degrees
 62
256
370
-1
  6
CONTINUOUS
 10
44.0333209967908132
 20
27.7320508075688785
 30
0.0
 11
46.0333209967908061
 21
24.2679491924311144
 31
0.0
  0
LINE
  5
15E
100
AcDbEntity
100
AcDbLine
  8
060 degrees
 62
256
370
-1
  6
CONTINUOUS
 10
46.0333209967908061
 20
24.2679491924311144
 30
0.0
 11
51.9615242270663202
 21
30.0000000000000107
 31
0.0
  0
LINE
  5
15F
100
AcDbEntity
100
AcDbLine
  8
120 degrees
 62
256
370
-1
  6
CONTINUOUS
 10
51.9615242270663131
 20
-30.0000000000000355
 30
0.0
 11
46.0333209967908061
 21
-24.2679491924311392
 31
0.0
  0
LINE
  5
160
100
AcDbEntity
100
AcDbLine
  8
120 degrees
 62
256
370
-1
  6
CONTINUOUS
 10
46.0333209967908061
 20
-24.2679491924311392
 30
0.0
 11
44.0333209967908061
 21
-27.7320508075688679
 31
0.0
  0
LINE
  5
161
100
AcDbEntity
100
AcDbLine
  8
120 degrees
 62
256
370
-1
  6
CONTINUOUS
 10
44.0333209967908061
 20
-27.7320508075688679
 30
0.0
 11
51.9615242270663131
 21
-30.0000000000000355
 31
0.0
  0
LINE
  5
162
100
AcDbEntity
100
AcDbLine
  8
180 degrees
 62
256
370
-1
  6
CONTINUOUS
 10
-0.0000000000000643
 20
-60.0000000000000142
 30
0.0
 11
1.9999999999999107
 21
-52.0000000000000142
 31
0.0
  0
LINE
  5
163
100
AcDbEntity
100
AcDbLine
  8
180 degrees
 62
256
370
-1
  6
CONTINUOUS
 10
1.9999999999999107
 20
-52.0000000000000142
 30
0.0
 11
-2.0000000000000222
 21
-52.0000000000000071
 31
0.0
  0
LINE
  5
164
100
AcDbEntity
100
AcDbLine
  8
180 degrees
 62
256
370
-1
  6
CONTINUOUS
 10
-2.0000000000000222
 20
-52.0000000000000071
 30
0.0
 11
-0.0000000000000643
 21
-60.0000000000000142
 31
0.0
  0
LINE
  5
165
100
AcDbEntity
100
AcDbLine
  8
240 degrees
 62
256
370
-1
  6
CONTINUOUS
 10
-51.9615242270663842
 20
-29.9999999999999574
 30
0.0
 11
-44.0333209967908701
 21
-27.732050807568779
 31
0.0
  0
LINE
  5
166
100
AcDbEntity
100
AcDbLine
  8
240 degrees
 62
256
370
-1
  6
CONTINUOUS
 10
-44.0333209967908701
 20
-27.732050807568779
 30
0.0
 11
-46.0333209967908346
 21
-24.2679491924310788
 31
0.0
  0
LINE
  5
167
100
AcDbEntity
100
AcDbLine
  8
240 degrees
 62
256
370
-1
  6
CONTINUOUS
 10
-46.0333209967908346
 20
-24.2679491924310788
 30
0.0
 11
-51.9615242270663842
 21
-29.9999999999999574
 31
0.0
  0
LINE
  5
168
100
AcDbEntity
100
AcDbLine
  8
300 degrees
 62
256
370
-1
  6
CONTINUOUS
 10
-51.961524227066306
 20
30.0000000000000817
 30
0.0
 11
-46.0333209967907706
 21
24.2679491924312174
 31
0.0
  0
LINE
  5
169
100
AcDbEntity
100
AcDbLine
  8
300 degrees
 62
256
370
-1
  6
CONTINUOUS
 10
-46.0333209967907706
 20
24.2679491924312174
 30
0.0
 11
-44.0333209967907848
 21
27.7320508075689034
 31
0.0
  0
LINE
  5
16A
100
AcDbEntity
100
AcDbLine
  8
300 degrees
 62
256
370
-1
  6
CONTINUOUS
 10
-44.0333209967907848
 20
27.7320508075689034
 30
0.0
 11
-51.961524227066306
 21
30.0000000000000817
 31
0.0
  0
LINE
  5
16B
100
AcDbEntity
100
AcDbLine
  8
360 degrees
 62
256
370
-1
  6
CONTINUOUS
 10
0.000000000000057
 20
60.0000000000000284
 30
0.0
 11
-1.99999999999994
 21
52.0000000000000071
 31
0.0
  0
LINE
  5
16C
100
AcDbEntity
100
AcDbLine
  8
360 degrees
 62
256
370
-1
  6
CONTINUOUS
 10
-1.99999999999994
 20
52.0000000000000071
 30
0.0
 11
2.0000000000000382
 21
51.9999999999999858
 31
0.0
  0
LINE
  5
16D
100
AcDbEntity
100
AcDbLine
  8
360 degrees
 62
256
370
-1
  6
CONTINUOUS
 10
2.0000000000000382
 20
51.9999999999999858
 30
0.0
 11
0.000000000000057
 21
60.0000000000000284
 31
0.0
  0
ARC
  5
16E
100
AcDbEntity
  8
PWM
 62
256
370
-1
  6
ByLayer
100
AcDbCircle
 10
0.0
 20
0.0
 30
0.0
 40
70.0
100
AcDbArc
 50
80.0
 51
90.0
  0
ARC
  5
16F
100
AcDbEntity
  8
PWM
 62
256
370
-1
  6
ByLayer
100
AcDbCircle
 10
0.0
 20
0.0
 30
0.0
 40
70.0
100
AcDbArc
 50
140.0
 51
149.9999999999999716
  0
ARC
  5
170
100
AcDbEntity
  8
PWM
 62
256
370
-1
  6
ByLayer
100
AcDbCircle
 10
0.0
 20
0.0
 30
0.0
 40
70.0
100
AcDbArc
 50
199.9999999999999716
 51
210.0
  0
ARC
  5
171
100
AcDbEntity
  8
PWM
 62
256
370
-1
  6
ByLayer
100
AcDbCircle
 10
0.0
 20
0.0
 30
0.0
 40
70.0
100
AcDbArc
 50
260.0
 51
270.0
  0
ARC
  5
172
100
AcDbEntity
  8
PWM
 62
256
370
-1
  6
ByLayer
100
AcDbCircle
 10
0.0
 20
0.0
 30
0.0
 40
70.0
100
AcDbArc
 50
320.0
 51
330.0
  0
ARC
  5
173
100
AcDbEntity
  8
PWM
 62
256
370
-1
  6
ByLayer
100
AcDbCircle
 10
0.0
 20
0.0
 30
0.0
 40
70.0
100
AcDbArc
 50
19.9999999999999787
 51
29.9999999999999645
  0
ARC
  5
174
100
AcDbEntity
  8
PWM
 62
256
370
-1
  6
ByLayer
100
AcDbCircle
 10
0.0
 20
0.0
 30
0.0
 40
80.0
100
AcDbArc
 50
100.0
 51
109.9999999999999858
  0
ARC
  5
175
100
AcDbEntity
  8
PWM
 62
256
370
-1
  6
ByLayer
100
AcDbCircle
 10
0.0
 20
0.0
 30
0.0
 40
80.0
100
AcDbArc
 50
160.0000000000000284
 51
170.0
  0
ARC
  5
176
100
AcDbEntity
  8
PWM
 62
256
370
-1
  6
ByLayer
100
AcDbCircle
 10
0.0
 20
0.0
 30
0.0
 40
80.0
100
AcDbArc
 50
220.0
 51
230.0
  0
ARC
  5
177
100
AcDbEntity
  8
PWM
 62
256
370
-1
  6
ByLayer
100
AcDbCircle
 10
0.0
 20
0.0
 30
0.0
 40
80.0
100
AcDbArc
 50
280.0
 51
290.0
  0
ARC
  5
178
100
AcDbEntity
  8
PWM
 62
256
370
-1
  6
ByLayer
100
AcDbCircle
 10
0.0
 20
0.0
 30
0.0
 40
80.0
100
AcDbArc
 50
340.0
 51
350.0
  0
ARC
  5
179
100
AcDbEntity
  8
PWM
 62
256
370
-1
  6
ByLayer
100
AcDbCircle
 10
0.0
 20
0.0
 30
0.0
 40
80.0
100
AcDbArc
 50
39.9999999999999929
 51
49.9999999999999787
  0
ARC
  5
17A
100
AcDbEntity
  8
PWM
 62
256
370
-1
  6
ByLayer
100
AcDbCircle
 10
0.0
 20
0.0
 30
0.0
 40
80.0
100
AcDbArc
 50
90.0
 51
99.9999999999999858
  0
ARC
  5
17B
100
AcDbEntity
  8
PWM
 62
256
370
-1
  6
ByLayer
100
AcDbCircle
 10
0.0
 20
0.0
 30
0.0
 40
80.0
100
AcDbArc
 50
150.0000000000000284
 51
160.0000000000000284
  0
ARC
  5
17C
100
AcDbEntity
  8
PWM
 62
256
370
-1
  6
ByLayer
100
AcDbCircle
 10
0.0
 20
0.0
 30
0.0
 40
80.0
100
AcDbArc
 50
210.0000000000000284
 51
220.0
  0
ARC
  5
17D
100
AcDbEntity
  8
PWM
 62
256
370
-1
  6
ByLayer
100
AcDbCircle
 10
0.0
 20
0.0
 30
0.0
 40
80.0
100
AcDbArc
 50
270.0
 51
280.0
  0
ARC
  5
17E
100
AcDbEntity
  8
PWM
 62
256
370
-1
  6
ByLayer
100
AcDbCircle
 10
0.0
 20
0.0
 30
0.0
 40
80.0
100
AcDbArc
 50
330.0000000000000568
 51
340.0
  0
ARC
  5
17F
100
AcDbEntity
  8
PWM
 62
256
370
-1
  6
ByLayer
100
AcDbCircle
 10
0.0
 20
0.0
 30
0.0
 40
80.0
100
AcDbArc
 50
29.9999999999999929
 51
39.9999999999999787
  0
MTEXT
  5
180
100
AcDbEntity
100
AcDbMText
  8
border
 62
5
370
-1
  6
CONTINUOUS
 10
22.6787392167797108
 20
-145.3581097046496495
 30
0.0
 40
5.0
 41
100.0
 71
4
 72
2
  1
09-August-2013
  7
iso
 50
0.0
 73
0
 44
1.0
  0
MTEXT
  5
181
100
AcDbEntity
100
AcDbMText
  8
border
 62
5
370
-1
  6
CONTINUOUS
 10
22.6812758945387785
 20
-125.0336540084458647
 30
0.0
 40
5.0
 41
100.0
 71
4
 72
2
  1
BLDC\~PWM\~6\~Stepper
  7
iso
 50
0.0
 73
0
 44
1.0
  0
ENDSEC
  0
SECTION
  2
OBJECTS
  0
DICTIONARY
  5
C
100
AcDbDictionary
280
0
281
1
  3
ACAD_GROUP
350
D
  3
ACAD_LAYOUT
350
1A
  3
ACAD_MLINESTYLE
350
17
  3
ACAD_PLOTSETTINGS
350
19
  3
ACAD_PLOTSTYLENAME
350
E
  3
AcDbVariableDictionary
350
182
  0
DICTIONARY
  5
D
100
AcDbDictionary
280
0
281
1
  0
ACDBDICTIONARYWDFLT
  5
E
100
AcDbDictionary
281
1
  3
Normal
350
F
100
AcDbDictionaryWithDefault
340
F
  0
ACDBPLACEHOLDER
  5
F
  0
DICTIONARY
  5
17
100
AcDbDictionary
280
0
281
1
  3
Standard
350
18
  0
MLINESTYLE
  5
18
100
AcDbMlineStyle
  2
STANDARD
 70
0
  3

 62
256
 51
90.0
 52
90.0
 71
2
 49
0.5
 62
256
  6
BYLAYER
 49
-0.5
 62
256
  6
BYLAYER
  0
DICTIONARY
  5
19
100
AcDbDictionary
280
0
281
1
  0
DICTIONARY
  5
1A
100
AcDbDictionary
281
1
  3
Layout1
350
1E
  3
Layout2
350
26
  3
Model
350
22
  0
LAYOUT
  5
1E
100
AcDbPlotSettings
  1

  2
C:\Program Files\AutoCAD 2002\plotters\DWF ePlot (optimized for plotting).pc3
  4

  6

 40
0.0
 41
0.0
 42
0.0
 43
0.0
 44
0.0
 45
0.0
 46
0.0
 47
0.0
 48
0.0
 49
0.0
140
0.0
141
0.0
142
1.0
143
1.0
 70
688
 72
0
 73
0
 74
5
  7

 75
16
147
1.0
148
0.0
149
0.0
100
AcDbLayout
  1
Layout1
 70
1
 71
1
 10
0.0
 20
0.0
 11
420.0
 21
297.0
 12
0.0
 22
0.0
 32
0.0
 14
100000000000000000000.0
 24
100000000000000000000.0
 34
100000000000000000000.0
 15
-100000000000000000000.0
 25
-100000000000000000000.0
 35
-100000000000000000000.0
146
0.0
 13
0.0
 23
0.0
 33
0.0
 16
1.0
 26
0.0
 36
0.0
 17
0.0
 27
1.0
 37
0.0
 76
0
330
1B
  0
LAYOUT
  5
22
100
AcDbPlotSettings
  1

  2
C:\Program Files\AutoCAD 2002\plotters\DWF ePlot (optimized for plotting).pc3
  4

  6

 40
0.0
 41
0.0
 42
0.0
 43
0.0
 44
0.0
 45
0.0
 46
0.0
 47
0.0
 48
0.0
 49
0.0
140
0.0
141
0.0
142
1.0
143
1.0
 70
1712
 72
0
 73
0
 74
0
  7

 75
0
147
1.0
148
0.0
149
0.0
100
AcDbLayout
  1
Model
 70
1
 71
0
 10
0.0
 20
0.0
 11
12.0
 21
9.0
 12
0.0
 22
0.0
 32
0.0
 14
0.0
 24
0.0
 34
0.0
 15
0.0
 25
0.0
 35
0.0
146
0.0
 13
0.0
 23
0.0
 33
0.0
 16
1.0
 26
0.0
 36
0.0
 17
0.0
 27
1.0
 37
0.0
 76
0
330
1F
  0
LAYOUT
  5
26
100
AcDbPlotSettings
  1

  2
C:\Program Files\AutoCAD 2002\plotters\DWF ePlot (optimized for plotting).pc3
  4

  6

 40
0.0
 41
0.0
 42
0.0
 43
0.0
 44
0.0
 45
0.0
 46
0.0
 47
0.0
 48
0.0
 49
0.0
140
0.0
141
0.0
142
1.0
143
1.0
 70
688
 72
0
 73
0
 74
5
  7

 75
16
147
1.0
148
0.0
149
0.0
100
AcDbLayout
  1
Layout2
 70
1
 71
2
 10
0.0
 20
0.0
 11
12.0
 21
9.0
 12
0.0
 22
0.0
 32
0.0
 14
0.0
 24
0.0
 34
0.0
 15
0.0
 25
0.0
 35
0.0
146
0.0
 13
0.0
 23
0.0
 33
0.0
 16
1.0
 26
0.0
 36
0.0
 17
0.0
 27
1.0
 37
0.0
 76
0
330
23
  0
DICTIONARY
  5
182
100
AcDbDictionary
281
1
  3
DIMASSOC
350
184
  3
HIDETEXT
350
183
  0
DICTIONARYVAR
  5
183
100
DictionaryVariables
280
0
  1
2
  0
DICTIONARYVAR
  5
184
100
DictionaryVariables
280
0
  1
1
  0
ENDSEC
  0
EOF
